Sound will begin in 5 seconds

morning dew barton solo 2 part 2

01234567891011121314151617181920212223
E
B
G
D
A
E
B
0 1 2 3 4 5 6 7 8 9 10 11 12 13 14 15 16 17 18 19 20 21 22 23
Song Science #1: How Pros Use 6 Chords to Write Hit Songs
(/) Slide Up  (\) Slide Down  (h) Hammer On  (p) Pull Off  (b) Bend (r) Release (v) Vibrato

Stave 1:

E|--------------------------------------------------------------------------------------------------------
B|--12h13p12----------------------------------------------------------------------------------------------
G|------------14--12--------------------------------------------------------------------------------------
D|--------------------14--12--14------12--------------12--12---------12------9----------------------------
A|--------------------------------15------14--14--15-------------12------12---------9----------9--10--12--
E|------------------------------------------------------------------------------12-----10--12-------------

Stave 2:

E|--------------------------------------------------------------------------------------------------------
B|--------------------------------------------------10------10----------10--------------------------------
G|------------------------9--12--11------9--------------12------11--12------11------9--11------9----------
D|--9----------9--11--12-------------12-----11--12------------------------------12---------12-----11--12--
A|-----10--12---------------------------------------------------------------------------------------------
E|--------------------------------------------------------------------------------------------------------

Stave 3:

E|----------------------------------------------------------10--13--12------12--10------10------
B|-----------------------------------10h11------10--11--13--------------13----------13------11--
G|--9----------------------------10---------12--------------------------------------------------
D|-----11------9-------------10-----------------------------------------------------------------
A|---------12-----10--8--12---------------------------------------------------------------------
E|----------------------------------------------------------------------------------------------

Stave 4:

E|----------------------------------------------------------------------------------------------------
B|--13p11p10h11------10-------------------------------------------------------------------------------
G|---------------12------11/12--10--9--------------------9--------------------------------------------
D|-------------------------------------10---------9--12-----10------9----------9----------10----------
A|-----------------------------------------10h12----------------12-----10--12-----10--12------12------
E|------------------------------------------------------------------------------------------------10--

Stave 5:

E|------------------------------------------------------12h13p12--------------12--14------12--14--15--17--
B|--------------------------------------13------13--15------------15--13--15----------15------------------
G|--11----------------------12------14--------------------------------------------------------------------
D|----------10----------12------14----------14------------------------------------------------------------
A|------12------12----------------------------------------------------------------------------------------
E|------------------10------------------------------------------------------------------------------------

Stave 6:

E|--14h15p14--------------14--17--17\15--13--12--15--14--13--12--15--13p12----------12----------------
B|------------17--15--17----------------------------------------------------15--15------15p13p12--13--
G|----------------------------------------------------------------------------------------------------
D|----------------------------------------------------------------------------------------------------
A|----------------------------------------------------------------------------------------------------
E|----------------------------------------------------------------------------------------------------

Stave 7:

E|-------------------------------------------------------14----------------------------------------------
B|--12--13--15--12h13p12----------12---------------------------------15--14--14--15------14----------14--
G|------------------------14--14------14--12--11--12/14------12--12------------------16------14--16------
D|-------------------------------------------------------------------------------------------------------
A|-------------------------------------------------------------------------------------------------------
E|-------------------------------------------------------------------------------------------------------

Stave 8:

E|------------------------------------------------------------------------------------------------
B|----------------------------------------------------------------------------------------10--13--
G|--14h16p14---------16--14--14h16p14------14--14------------------------------9--10--12----------
D|------------15h16--------------------16----------16----------------------12---------------------
A|-----------------------------------------------------16--15--14--12--12-------------------------
E|------------------------------------------------------------------------------------------------

Stave 9:

E|---------------------------------------------------------------------------
B|------------------10--11--10-----------------------------------------------
G|--10------10--12--------------12--10------10--10------9--9--9------9h10p9--
D|------12------------------------------12----------12-----------12----------
A|---------------------------------------------------------------------------
E|---------------------------------------------------------------------------

http://www.guitartabcreator.com
Guitar Tab Creator is intended to store guitar tab created through the tool. It currently does not support in-line text editing. Any text you place in here will be lost. If you need to comment on your tab, please use the "Tab Notes" section located below.