Sound will begin in 5 seconds

morning dew barton solo 2

01234567891011121314151617181920212223
E
B
G
D
A
E
B
0 1 2 3 4 5 6 7 8 9 10 11 12 13 14 15 16 17 18 19 20 21 22 23
Song Science #1: How Pros Use 6 Chords to Write Hit Songs
(/) Slide Up  (\) Slide Down  (h) Hammer On  (p) Pull Off  (b) Bend (r) Release (v) Vibrato

Stave 1:

E|------------------------------------------------------------------------------------------------------
B|----------------------------12------------------------------------------------------------------------
G|--11h12p11h12p11h12/14--14------12h14p12--11--11--12--14--12------11--12------11----------------------
D|--------------------------------------------------------------14----------14------12--14--12----------
A|----------------------------------------------------------------------------------------------14--15--
E|------------------------------------------------------------------------------------------------------

Stave 2:

E|--------------------------------12--13--13--13--12----------------------------------------------------
B|------------------------13--15----------------------13--13v-----12h13p12------12--13--15--15--15--15--
G|----------------12--14----------------------------------------------------14--------------------------
D|--17--14h15-------------------------------------------------------------------------------------------
A|------------------------------------------------------------------------------------------------------
E|------------------------------------------------------------------------------------------------------

Stave 3:

E|--19--19--19--19\17--17--17--17--17p15p14--17--15p14--------------------------------------------
B|------------------------------------------------------17--15--15--15-----15h17------18--17--15--
G|--------------------------------------------------------------------------------14--------------
D|------------------------------------------------------------------------------------------------
A|------------------------------------------------------------------------------------------------
E|------------------------------------------------------------------------------------------------

Stave 4:

E|--17--15--13--15--14--13--12------13--12---------------------12---------------------------------------
B|------------------------------15----------15--13-----13--15-------------12--10------10--9/10----------
G|--------------------------------------------------------------------12----------12------------12--11--
D|------------------------------------------------------------------------------------------------------
A|------------------------------------------------------------------------------------------------------
E|------------------------------------------------------------------------------------------------------

Stave 5:

E|----------------------------------------------------------14-------------20--17------------------
B|------------------------------------------------------13-------------18----------18--------------
G|---------------11/12--14p12p11------12/14--14--13h14-------------17------------------17--17--19--
D|--12p11h12----------------------12---------------------------------------------------------------
A|-------------------------------------------------------------------------------------------------
E|-------------------------------------------------------------------------------------------------

Stave 6:

E|----------------------17--15------15--------------------------------------------------------
B|------------------------------17------17--17p16p15------15--17------------------------------
G|--17--17----------17--------------------------------17--------------------------------------
D|----------17--19----------------------------------------------------------12--14p13p12------
A|-------------------------------------------------------------------13h14----------------14--
E|--------------------------------------------------------------------------------------------

Stave 7:

E|--------------------------------------------------------14----------14--15--14-----15p14h15--17--
B|----------------------------14--15--14------14--15--17------15--17-------------------------------
G|---------14---------14--16--------------16-------------------------------------------------------
D|--15/16------15h16-------------------------------------------------------------------------------
A|-------------------------------------------------------------------------------------------------
E|-------------------------------------------------------------------------------------------------

Stave 8:

E|--15--14-----15--13--12------12----------12--------------------------------------------------
B|-------------------------15------13--15------13------12--13--12------12----------------------
G|-------------------------------------------------14--------------14------14--12--14--12--12--
D|---------------------------------------------------------------------------------------------
A|---------------------------------------------------------------------------------------------
E|---------------------------------------------------------------------------------------------

Stave 9:

E|--------------
B|----------13--
G|------12------
D|--14----------
A|--------------
E|--------------

http://www.guitartabcreator.com
Guitar Tab Creator is intended to store guitar tab created through the tool. It currently does not support in-line text editing. Any text you place in here will be lost. If you need to comment on your tab, please use the "Tab Notes" section located below.