Sound will begin in 5 seconds

morning dew 9/19/87 solo 2

01234567891011121314151617181920212223
E
B
G
D
A
E
B
0 1 2 3 4 5 6 7 8 9 10 11 12 13 14 15 16 17 18 19 20 21 22 23
Song Science #1: How Pros Use 6 Chords to Write Hit Songs
(/) Slide Up  (\) Slide Down  (h) Hammer On  (p) Pull Off  (b) Bend (r) Release (v) Vibrato

Stave 1:

E|-----------------13--13--15b17--17--17-----17p16p15--15v---------------
B|---------13--15----------------------------------------------15b17r15--
G|--12/14----------------------------------------------------------------
D|-----------------------------------------------------------------------
A|-----------------------------------------------------------------------
E|-----------------------------------------------------------------------

Stave 2:

E|------13--14----------------------------------------------------------------------------------
B|--15----------15--14--13------13-------------12--10-------------------------------------------
G|--------------------------14------14--14\12----------10/11--10/11-----------------------------
D|-------------------------------------------------------------------12--11--10--7--------------
A|----------------------------------------------------------------------------------10--9--7/8--
E|----------------------------------------------------------------------------------------------

Stave 3:

E|----------------------------13--15--14--13--12-----------------------------------------
B|------------------------------------------------15b17--17v-----17p16p15--17b19--17b19--
G|-----------------10--12/14-------------------------------------------------------------
D|---------10--10------------------------------------------------------------------------
A|--10/12--------------------------------------------------------------------------------
E|---------------------------------------------------------------------------------------

Stave 4:

E|-----------------------20--19--17------17---------19---------------------------------20--20--20--
B|--17b19--19--17b19-----------------19------18h19------19--18--17---------------------------------
G|------------------------------------------------------------------19--18--17--19/20--------------
D|-------------------------------------------------------------------------------------------------
A|-------------------------------------------------------------------------------------------------
E|-------------------------------------------------------------------------------------------------

Stave 5:

E|--20p19h20p19--19/20--19--19--17----------------------------------------------------------------------
B|----------------------------------20--20--21b23--21-----19p18p17------19--------------------------17--
G|------------------------------------------------------------------19------19--18--17------------------
D|--------------------------------------------------------------------------------------19--18--17------
A|------------------------------------------------------------------------------------------------------
E|------------------------------------------------------------------------------------------------------

Stave 6:

E|-------------------------------------------------------------------------------------------------
B|----------15-------------------------------------------------------------------------------------
G|--------------17--16--14---------14--16---------------------------------------14--15--16--17/19--
D|--15--16------------------15h16----------16p15p14------14---------14--15--16---------------------
A|---------------------------------------------------17------16h17---------------------------------
E|-------------------------------------------------------------------------------------------------

Stave 7:

E|-------------------12--15p14p13p12--13--12----------12-----------------------------------------------
B|--18p17h18--18------------------------------15--13------15--13--12--15--13--12-------------12h13p12--
G|--------------------------------------------------------------------------------14--13h14------------
D|-----------------------------------------------------------------------------------------------------
A|-----------------------------------------------------------------------------------------------------
E|-----------------------------------------------------------------------------------------------------

Stave 8:

E|------------------------------------------------------------------------------------------------
B|------------12----------------------------------------------------------------------------------
G|--14p13h14------14--13--12-----14--13--12------11h12p11--------------11-------------------------
D|-------------------------------------------14------------14--12--14------14--13--12--10--11/12--
A|------------------------------------------------------------------------------------------------
E|------------------------------------------------------------------------------------------------

Stave 9:

E|----------------------------------------------------------------------------------------------------
B|------------------------------------------------------------------------------------------------12--
G|------------------------------------------------11----------11--12------11--12--14--11--12--14------
D|----------------11----------11--12--11--12--14------12--14----------14------------------------------
A|--12p11h12--14------12--14--------------------------------------------------------------------------
E|----------------------------------------------------------------------------------------------------

Stave 10:

E|----------------------------------------------12----------12--14------12--14--15--12--14--15--
B|----------12--13------12--13--15--12--13--15------13--15----------15--------------------------
G|--12--14----------14--------------------------------------------------------------------------
D|----------------------------------------------------------------------------------------------
A|----------------------------------------------------------------------------------------------
E|----------------------------------------------------------------------------------------------

Stave 11:

E|--15/17--17--17--17--17--17--17--17--15b17--
B|--------------------------------------------
G|--------------------------------------------
D|--------------------------------------------
A|--------------------------------------------
E|--------------------------------------------

http://www.guitartabcreator.com
Guitar Tab Creator is intended to store guitar tab created through the tool. It currently does not support in-line text editing. Any text you place in here will be lost. If you need to comment on your tab, please use the "Tab Notes" section located below.