Sound will begin in 5 seconds

MLB- 6/26/74 part 3

01234567891011121314151617181920212223
E
B
G
D
A
E
B
0 1 2 3 4 5 6 7 8 9 10 11 12 13 14 15 16 17 18 19 20 21 22 23
Song Science #1: How Pros Use 6 Chords to Write Hit Songs
(/) Slide Up  (\) Slide Down  (h) Hammer On  (p) Pull Off  (b) Bend (r) Release (v) Vibrato

Stave 1:

E|----------------------------------------------------------------------------------------------------
B|------14----------15----------------------------------------17--17------16--16------15------15--14--
G|--12---------------------------------14-------------------------------------------------14----------
D|----------14--16------15--14---------------------15/17--17----------16----------15------------------
A|------------------------------15/16------16---------------------------------------------------------
E|---------------------------------------------17-----------------------------------------------------

Stave 2:

E|------------------17------17---------------------------------------------------17------------------
B|----------17--17------17------17--16--16--15--15--14--------17--17-----17--17------16--------------
G|--14--14-------------------------------------------------------------------------------17------17--
D|-------------------------------------------------------------------------------------------16------
A|---------------------------------------------------------------------------------------------------
E|---------------------------------------------------------------------------------------------------

Stave 3:

E|--------------------------------------------------------------------------------------------
B|--16----------------------15------15----------17------------17------------17------------15--
G|------14------14------14------------------14------------14------14\13/14------14\13/14------
D|----------16------15----------15------14----------------------------------------------------
A|--------------------------------------------------------------------------------------------
E|--------------------------------------------------------------------------------------------

Stave 4:

E|------------------------------------------------------------17--------------------------------------
B|------------15------------14------------14------17------17----------15--------------15------14------
G|--14\13/14------14\13/14------14\13/14------14------14------------------14------14--------------14--
D|----------------------------------------------------------------15----------15----------14----------
A|----------------------------------------------------------------------------------------------------
E|----------------------------------------------------------------------------------------------------

Stave 5:

E|---------------------------------------------------------------------------------------------
B|------17p15------15p14-----------------------------------------------------------------------
G|--14---------14---------16--14--16p14--------------------------------------------------------
D|---------------------------------------16--14-----14--12------11---------------------11--12--
A|----------------------------------------------------------14------14--12-----12--14----------
E|---------------------------------------------------------------------------------------------

Stave 6:

E|-------------------------------------------------------------------------------------------------------
B|-------------------------------------------------------------------------------------------------------
G|-----------------------------------------------------------------------------------------2--4--5\4--2--
D|--14--12--11--------------------7--7-----7h9p7--5h7p5--4-----3--3-----3\2----------2--4----------------
A|--------------14--12--12--0-----------9-------------------5--------5----------3h4----------------------
E|-------------------------------------------------------------------------------------------------------

Stave 7:

E|-------------------------------------5----------------------------5--7--9---------9--12--11--10--9--
B|---------------5--7--5-----5--7p6h7-----7--5--------7p5-----5--7--------------10--------------------
G|-------2--4/6-----------6---------------------6----------6------------------------------------------
D|--3h4--------------------------------------------7--------------------------------------------------
A|----------------------------------------------------------------------------------------------------
E|----------------------------------------------------------------------------------------------------

Stave 8:

E|----------9--------------------------------------------------------------------------------
B|--12--10-----10--9------9---------9-----------------------10--9--12--10------------10------
G|--------------------11-----10h11------------9----------9-----------------12p11h12------12--
D|-------------------------------------10h11-----10--11--------------------------------------
A|-------------------------------------------------------------------------------------------
E|-------------------------------------------------------------------------------------------

Stave 9:

E|-------------------------------------------------------------------------------------------------
B|--------------------------------------------------------------10--9--10--12--10--------------10--
G|---------9--11------9---------9--------------------------------------------------11--11--12------
D|--10h11---------11-----10h11-----11--9p7-----7-------7--9/11-------------------------------------
A|------------------------------------------9-----8h9----------------------------------------------
E|-------------------------------------------------------------------------------------------------

Stave 10:

E|------------------------------------------------------------------------------------------------
B|------------------------------------------------------------------------------------------------
G|--12--9------12--9----------9---------9--11------9--11b13------9--9--------------------------9--
D|---------11---------11---------10h11---------11------------11--------9/11--11------9------------
A|------------------------12-----------------------------------------------------11-----10h11-----
E|------------------------------------------------------------------------------------------------

Stave 11:

E|---------------------------------------------------------------------------------------
B|------------------------------------------------------9------------9-------------------
G|-------------------------------9-------------------9------------9------------9---------
D|-----------------------------------------9--11--9--------11--9--------11--9-----11--9--
A|--11\9p7--------7-----7--9/11-----10h11------------------------------------------------
E|----------9--7-----9-------------------------------------------------------------------

Stave 12:

E|--------------------------------------------------------------------------------------------
B|--------------------------------------------------------------------------------------------
G|--11b13r13--13--11--9------11--10--9-------------9------------------------------------------
D|-----------------------11-------------11--10h11-----11--9-------------9--9--11--9-----------
A|-----------------------------------------------------------11--10h11---------------11\9--7--
E|--------------------------------------------------------------------------------------------

http://www.guitartabcreator.com
Guitar Tab Creator is intended to store guitar tab created through the tool. It currently does not support in-line text editing. Any text you place in here will be lost. If you need to comment on your tab, please use the "Tab Notes" section located below.