Sound will begin in 5 seconds

MLB- 6/26/74 part 2

01234567891011121314151617181920212223
E
B
G
D
A
E
B
0 1 2 3 4 5 6 7 8 9 10 11 12 13 14 15 16 17 18 19 20 21 22 23
Song Science #1: How Pros Use 6 Chords to Write Hit Songs
(/) Slide Up  (\) Slide Down  (h) Hammer On  (p) Pull Off  (b) Bend (r) Release (v) Vibrato

Stave 1:

E|------------------------------------------------------------------------------------------
B|------------------------------------------------------------------------------------------
G|------------------14--17--16p14------14---------14------14---------14---------------------
D|--14--14--14--16-----------------16------15h16------15------15h16------15--14--12\11------
A|--------------------------------------------------------------------------------------12--
E|------------------------------------------------------------------------------------------

Stave 2:

E|-----------------------------------------------------------------------------------------
B|-----------------------------------------------------------------------------------------
G|-------------------------------------------------------------------------14--------------
D|--11------14--12--11------12--11----------11--14--12-----14--16--14--16------16--14------
A|------12--------------14----------14--12---------------------------------------------16--
E|-----------------------------------------------------------------------------------------

Stave 3:

E|---------------------------------------------------------17------20--17----------------------
B|--------------14--17--------------19--18--17-----------------18----------18--17------17------
G|--14--14--16----------18--17--16--------------18-----------------------------------------18--
D|--------------------------------------------------19-----------------------------19----------
A|---------------------------------------------------------------------------------------------
E|---------------------------------------------------------------------------------------------

Stave 4:

E|------17--19--21------21--19--17--17------17--17--16------16------------------------
B|--17--------------21------------------19--------------17------19--17--17-----17-----
G|------------------------------------------------------------------------------------
D|------------------------------------------------------------------------------------
A|------------------------------------------------------------------------------------
E|------------------------------------------------------------------------------------

Stave 5:

E|--16-------------------------------------------------------------------------------------------------
B|----------17------17---------------------------------------------------------------------------------
G|------16------18------16--18--16---------16-------------14v-----16b18r16--14------16/17--16--14------
D|----------------------------------16/18------18\16--14------------------------16-----------------16--
A|-----------------------------------------------------------------------------------------------------
E|-----------------------------------------------------------------------------------------------------

Stave 6:

E|-------------------------------17-----------------------------------------------------------
B|----------------17--17-----------------17/18--17-------------------------18--17-------------
G|--14--16/18-------------17/18------18-------------18--16--18\16--14--18----------18p17------
D|----------------------------------------------------------------------------------------19--
A|--------------------------------------------------------------------------------------------
E|--------------------------------------------------------------------------------------------

Stave 7:

E|-----------------------------------------------------------------------------------------------
B|------------------14b16r14---------------------------------------------------------------------
G|----------14--16------------16--14------14--16--17--16--14----------16/18--17--16--14----------
D|--14--16----------------------------16----------------------15--15---------------------16--14--
A|-----------------------------------------------------------------------------------------------
E|-----------------------------------------------------------------------------------------------

Stave 8:

E|-----------------------------------------------------------------17---------17---------17--19--19b21--
B|---------------------------------19--18--17------17--17--18--19------18h19------18h19-----------------
G|-----------------14--16--15--14--------------18-------------------------------------------------------
D|---------14--16---------------------------------------------------------------------------------------
A|--15h16-----------------------------------------------------------------------------------------------
E|------------------------------------------------------------------------------------------------------

Stave 9:

E|--19b21---------------------------------------------------------------------------
B|----------------------------------------------------------------------------------
G|------------14p13-----------------------------------------------------------------
D|-------------------14--13p12------------------------------------14p13h14--16--14--
A|------------------------------14--12\11------14--12--14\16--14--------------------
E|-----------------------------------------12---------------------------------------

Stave 10:

E|---------------------------------------------------------------------------------------------
B|--------------------------------------------------------------14------14--15--15p14----------
G|--------------13--14--16--14--13------14--13------13--14--16------16-----------------16--14--
D|--14--14--16----------------------16----------16---------------------------------------------
A|---------------------------------------------------------------------------------------------
E|---------------------------------------------------------------------------------------------

Stave 11:

E|---------------------
B|--14-----------------
G|------16--14\13--14--
D|---------------------
A|---------------------
E|---------------------

http://www.guitartabcreator.com
Guitar Tab Creator is intended to store guitar tab created through the tool. It currently does not support in-line text editing. Any text you place in here will be lost. If you need to comment on your tab, please use the "Tab Notes" section located below.