Sound will begin in 5 seconds

MLB- 6/26/74 part 1

01234567891011121314151617181920212223
E
B
G
D
A
E
B
0 1 2 3 4 5 6 7 8 9 10 11 12 13 14 15 16 17 18 19 20 21 22 23
Song Science #1: How Pros Use 6 Chords to Write Hit Songs
(/) Slide Up  (\) Slide Down  (h) Hammer On  (p) Pull Off  (b) Bend (r) Release (v) Vibrato

Stave 1:

E|---------14--12-----------------------------------------------------------------17------
B|--10/12----------15--14--13--12--12------12--14--14/17--19--18--17----------17------19--
G|-------------------------------------14-----------------------------18--19--------------
D|----------------------------------------------------------------------------------------
A|----------------------------------------------------------------------------------------
E|----------------------------------------------------------------------------------------

Stave 2:

E|---------------------------------------------------------------------------------------------12--
B|--17--19--17--18-----------------17---------------------------------------------------13/14------
G|------------------19--18-------------18--16--14--16b18r14--14------14---------14--14-------------
D|--------------------------19-----------------------------------16---------16---------------------
A|-------------------------------------------------------------------------------------------------
E|-------------------------------------------------------------------------------------------------

Stave 3:

E|--14--17--17--------------------19b21r19--17--21-----------------------------------------------------
B|----------------------------17--------------------17--19--19/20--19--17---------------------17--18v--
G|--------------16b18r16--14-----------------------------------------------18-------------14-----------
D|--------------------------------------------------------------------------------14--16---------------
A|-----------------------------------------------------------------------------------------------------
E|-----------------------------------------------------------------------------------------------------

Stave 4:

E|----------------------------------------------------------------------------------------
B|----------------------------------------------------------------------------------------
G|--16b18r16--14------16/18--16--14---------14--16--17--16--14------14--16--16b18r16--14--
D|----------------16--------------------16----------------------16------------------------
A|----------------------------------------------------------------------------------------
E|----------------------------------------------------------------------------------------

Stave 5:

E|------------------------------------------------------------------------------------------
B|------------------------------------------------------------------------------------------
G|------------------14-------------14--14\0----------------------------------------------2--
D|--16--14------14------------------------------7--6--5--7--5-----------7--5----------------
A|----------16----------16\14--12------------------------------5--6--7--------------3/4-----
E|----------------------------------------------------------------------------8--5----------

Stave 6:

E|--------------------------------------------------------------------------------------------------
B|--------5--------4--------3--------2------------------14b16r14--12--12--14b16r14------------------
G|-----6--------5--------2--------2-----------------14------------------------------14--------------
D|--5--------4--------3--------2--------------------------------------------------------14--14--14--
A|--------------------------------------------------------------------------------------------------
E|--------------------------------------------------------------------------------------------------

Stave 7:

E|----------------------------------------------------------------------------------------
B|--------------14----------14--17--14--14--14--------------------------------------------
G|----------14----------14----------------------16--14--16b18--18r16--14------14--16--14--
D|--14--14----------14----------------------------------------------------16--------------
A|----------------------------------------------------------------------------------------
E|----------------------------------------------------------------------------------------

Stave 8:

E|------------------14--------------------------------------------------------------------------
B|--14--17--15--14------17--15--14--17--15--14------15--14----------14--------------------------
G|----------------------------------------------16----------16--14------16--14------14----------
D|------------------------------------------------------------------------------16------16--14--
A|----------------------------------------------------------------------------------------------
E|----------------------------------------------------------------------------------------------

Stave 9:

E|----------------------------------14----------14------------------14--13----------------------
B|----------14--17--15--14--------------17--15------17--15--14--------------15--18--17--15--14--
G|------14------------------16--14------------------------------16------------------------------
D|--14------------------------------------------------------------------------------------------
A|----------------------------------------------------------------------------------------------
E|----------------------------------------------------------------------------------------------

Stave 10:

E|------------------------------------------------------------------------------------------------------
B|------------------------------------------------------------------------------------------------------
G|--13--14--16--13--14----------14----------14--14--14/16--14--16--18\16p14--14--16---------------------
D|----------------------14--14------14--13-------------------------------------------14--13--12\11------
A|--------------------------------------------------------------------------------------------------12--
E|------------------------------------------------------------------------------------------------------

Stave 11:

E|--
B|--
G|--
D|--
A|--
E|--

http://www.guitartabcreator.com
Guitar Tab Creator is intended to store guitar tab created through the tool. It currently does not support in-line text editing. Any text you place in here will be lost. If you need to comment on your tab, please use the "Tab Notes" section located below.