Sound will begin in 5 seconds

MLB 6/26/74 jazz part

01234567891011121314151617181920212223
E
B
G
D
A
E
B
0 1 2 3 4 5 6 7 8 9 10 11 12 13 14 15 16 17 18 19 20 21 22 23
Song Science #1: How Pros Use 6 Chords to Write Hit Songs
(/) Slide Up  (\) Slide Down  (h) Hammer On  (p) Pull Off  (b) Bend (r) Release (v) Vibrato

Stave 1:

E|------------------------------------12--15--14----------12-------------------------------------
B|------------------------12--14--15------------------15------15--14--12-------------------------
G|-----------------12h14--------------------------14----------------------14p12------12----------
D|---------12--------------------------------------------------------------------14------14--12--
A|--13/14------14--------------------------------------------------------------------------------
E|-----------------------------------------------------------------------------------------------

Stave 2:

E|-----------------------------------------------------------------------------------------------
B|-----------------------------------------------------------------------------------------------
G|----------------------------------------------11--------------------------------12--14p12------
D|----------------12--14--11/12--11/12--12--12------14p12------12---------12--14-------------14--
A|--12--15p12h15-------------------------------------------14------13h14-------------------------
E|-----------------------------------------------------------------------------------------------

Stave 3:

E|------------------------------------------------------------------------------------------------
B|----------12--------------12------12--12\11--10---------------------------------------------12--
G|--12--14------14--12----------14-----------------12--12-----------------11--14--11------11------
D|---------------------------------------------------------14p12------12--------------12----------
A|----------------------14----------------------------------------14------------------------------
E|------------------------------------------------------------------------------------------------

Stave 4:

E|-------------------------------------------------------------------------------------------------
B|-------------------------------------------------------------------------------------------------
G|--13--11------14--11----------11-------------------------------------------------------------12--
D|----------12----------12----------12-------------------------9--12--9--------------9--12/14------
A|--------------------------14----------14--12--14---------10------------10------10----------------
E|-----------------------------------------------------12--------------------12--------------------

Stave 5:

E|-------------------------------------------------------14--17--15--14------14------14-------------
B|---------------------------------------------------15------------------17------15------17--15p14--
G|---------12h14--15--16--15--14--12------12--14/16-------------------------------------------------
D|--13h14-----------------------------14------------------------------------------------------------
A|--------------------------------------------------------------------------------------------------
E|--------------------------------------------------------------------------------------------------

Stave 6:

E|--------------------------------------------15--17--19--15--15--17--15--14--14--
B|--15--15p14------14-----------------15--17--------------------------------------
G|-------------16------15h16--16--16----------------------------------------------
D|--------------------------------------------------------------------------------
A|--------------------------------------------------------------------------------
E|--------------------------------------------------------------------------------

Stave 7:

E|---------------------------------------------------------------------------------------------------
B|--15------15------15--14------15------15p14------15------17--15p14------15p14------14--------------
G|------16------16----------16------16---------16------16-------------16---------16------16--14------
D|-----------------------------------------------------------------------------------------------16--
A|---------------------------------------------------------------------------------------------------
E|---------------------------------------------------------------------------------------------------

Stave 8:

E|--------------------------------------------------------------------------------------------------
B|-----------------------------------------------8-------------------------------------------7--10--
G|--14\12--11h12------------------------7--9--7-----9--7--7--7--6-------------6--6--------7---------
D|----------------14p12------12--10/11----------------------------------5--7--------7--9------------
A|-----------------------14----------------------------------------6h7------------------------------
E|--------------------------------------------------------------------------------------------------

Stave 9:

E|-------------------------------------------7-------------------------------------------------
B|--7--------7----------------------------------10-----8--8p7-----7-------8--10-----8--10--12--
G|-----7--------9--9--7--7--6-----6-------7---------9----------9-----8h9---------9-------------
D|--------7--------------------9-----8/9-------------------------------------------------------
A|---------------------------------------------------------------------------------------------
E|---------------------------------------------------------------------------------------------

Stave 10:

E|--12--15--14--12------12--------------------------------------------------
B|------------------14------15--14--13--12--15--13--12--11--12--11--10------
G|----------------------------------------------------------------------12--
D|--------------------------------------------------------------------------
A|--------------------------------------------------------------------------
E|--------------------------------------------------------------------------

http://www.guitartabcreator.com
Guitar Tab Creator is intended to store guitar tab created through the tool. It currently does not support in-line text editing. Any text you place in here will be lost. If you need to comment on your tab, please use the "Tab Notes" section located below.