Sound will begin in 5 seconds

mississippi intro 5 7 77 main solo part 2

01234567891011121314151617181920212223
E
B
G
D
A
E
B
0 1 2 3 4 5 6 7 8 9 10 11 12 13 14 15 16 17 18 19 20 21 22 23
Song Science #1: How Pros Use 6 Chords to Write Hit Songs
(/) Slide Up  (\) Slide Down  (h) Hammer On  (p) Pull Off  (b) Bend (r) Release (v) Vibrato

Stave 1:

E|--19--19b21r19--17------17-----17--19p18p17---------17---------17--19b21--19-----19--------------17--
B|--------------------19-----------------------18/19------18h19------------------------17--18--19------
G|-----------------------------------------------------------------------------------------------------
D|-----------------------------------------------------------------------------------------------------
A|-----------------------------------------------------------------------------------------------------
E|-----------------------------------------------------------------------------------------------------

Stave 2:

E|------15--17b19------------------------------15---------------------------------------
B|--17---------------------17--19------------------17--15--14h15p14------14-------------
G|-----------------17--18--------------18----------------------------16------16p14------
D|---------------------------------19------17---------------------------------------16--
A|--------------------------------------------------------------------------------------
E|--------------------------------------------------------------------------------------

Stave 3:

E|------------------------------------------------------------------------------------------------
B|------------------------------------------------------------------------------------------------
G|--14--14h16p14-------------------------------------------------------14------14--16p14------14--
D|----------------16--14---------14----------16--14------14--16p14h16------16-------------16------
A|------------------------15h16------15--16----------16-------------------------------------------
E|------------------------------------------------------------------------------------------------

Stave 4:

E|------------------------------------------------------------------------------------------
B|---------------------------------14------14--15p14------15p14-----------------------------
G|---------14------14--16--14--16------16-------------16---------16--14------14-------------
D|--15h16------16--------------------------------------------------------16------16p14------
A|--------------------------------------------------------------------------------------16--
E|------------------------------------------------------------------------------------------

Stave 5:

E|--------------------------------------------------------------------------------------
B|-----------------------------------------------14------14--15p14------14--15--16--17--
G|-------------------------14------14--16p14h16------16-------------16------------------
D|--14---------14--16--14------16-------------------------------------------------------
A|------15h16---------------------------------------------------------------------------
E|--------------------------------------------------------------------------------------

Stave 6:

E|------------------------------------------------------------------------------------------------
B|--15--16--17--18--19--19--19--19--19--19--19b21--17--19--19b21--19--17--17----------17--19--17--
G|--------------------------------------------------------------------------------18--------------
D|----------------------------------------------------------------------------19------------------
A|------------------------------------------------------------------------------------------------
E|------------------------------------------------------------------------------------------------

Stave 7:

E|--------------------------------------------------------------------------------------------------
B|----------17--20--17----------17--19--17----------17--------------19--20--19----------19--20--19--
G|------18------------------18------------------18------19------19------------------19--------------
D|--19------------------19------------------19--------------19------------------19------------------
A|--------------------------------------------------------------------------------------------------
E|--------------------------------------------------------------------------------------------------

Stave 8:

E|-----------------------------------------------------------------------------------------------17--
B|----------19--20--19----------19--17---------17--17---------17--17---------17--17--17--18--19------
G|------19--------------18--18----------17h18----------17h18----------17h18--------------------------
D|--19-----------------------------------------------------------------------------------------------
A|---------------------------------------------------------------------------------------------------
E|---------------------------------------------------------------------------------------------------

Stave 9:

E|---------17--17---------17--17---------17--17--19--17--19b21--19b21--17--19--17--17--
B|--18h19----------18h19----------18h19------------------------------------------------
G|-------------------------------------------------------------------------------------
D|-------------------------------------------------------------------------------------
A|-------------------------------------------------------------------------------------
E|-------------------------------------------------------------------------------------

Stave 10:

E|--19--17--19b21--19b21--21r19--17------19--17---------17--19--17---------17--19--17------17--
B|-----------------------------------20----------18h19--------------18h19--------------19------
G|---------------------------------------------------------------------------------------------
D|---------------------------------------------------------------------------------------------
A|---------------------------------------------------------------------------------------------
E|---------------------------------------------------------------------------------------------

Stave 11:

E|--19--17--19--19b21--21--21--21--21--21r19--17----------------------------------------------------
B|------------------------------------------------19--19--17--17------17h19p17------17--------------
G|----------------------------------------------------------------18------------18------18----------
D|------------------------------------------------------------------------------------------19--17--
A|--------------------------------------------------------------------------------------------------
E|--------------------------------------------------------------------------------------------------

Stave 12:

E|----------------------------------
B|------------------------------15--
G|--19--16------------------14------
D|----------17--16--16--16----------
A|----------------------------------
E|----------------------------------

http://www.guitartabcreator.com
Guitar Tab Creator is intended to store guitar tab created through the tool. It currently does not support in-line text editing. Any text you place in here will be lost. If you need to comment on your tab, please use the "Tab Notes" section located below.