Sound will begin in 5 seconds

mississippi intro 5 7 77 main solo

01234567891011121314151617181920212223
E
B
G
D
A
E
B
0 1 2 3 4 5 6 7 8 9 10 11 12 13 14 15 16 17 18 19 20 21 22 23
Song Science #1: How Pros Use 6 Chords to Write Hit Songs
(/) Slide Up  (\) Slide Down  (h) Hammer On  (p) Pull Off  (b) Bend (r) Release (v) Vibrato

Stave 1:

E|----------------------------------------------------------------------7---------7--9p8p7------7--
B|------14p12--12p10------10--12p10--9--8-----7-----7-----10--7--10--7-----7--10------------10-----
G|--------------------12-------------------7-----7-----7-------------------------------------------
D|--14---------------------------------------------------------------------------------------------
A|-------------------------------------------------------------------------------------------------
E|-------------------------------------------------------------------------------------------------

Stave 2:

E|--7/9--9--9--12--14--12---------------------------------------------------------------------9------
B|-------------------------13--12--10--12--13\12--10--12------10----------10--12--10------12-----12--
G|--------------------------------------------------------11----------11--------------11-------------
D|----------------------------------------------------------------12---------------------------------
A|---------------------------------------------------------------------------------------------------
E|---------------------------------------------------------------------------------------------------

Stave 3:

E|---------------------------------------------------------------------------9h10p9-----------------7--
B|--10--12p10-------------------------------------------------10-----10--12----------8h9h10--7--10-----
G|-------------11--9------9----------9--11----------9------9------9------------------------------------
D|--------------------11---------11---------11--11-----11----------------------------------------------
A|---------------------------12------------------------------------------------------------------------
E|-----------------------------------------------------------------------------------------------------

Stave 4:

E|--------10--9------9--9------9--10--11--12-----------------------------9-----------------------7--
B|---------------12--------12-----------------12/14--12--10------10--12-----12--10------8-----8-----
G|--9/11-----------------------------------------------------11---------------------11-----9--------
D|--------------------------------------------------------------------------------------------------
A|--------------------------------------------------------------------------------------------------
E|--------------------------------------------------------------------------------------------------

Stave 5:

E|----------------------7---------7--9h10p9--7---------9--10--11--12----------------------------
B|--7--10--7-----7--10-----7--10----------------7--10-----------------12b14--14--10--10-----10--
G|------------7--------------------------------------------------------------------------9------
D|----------------------------------------------------------------------------------------------
A|----------------------------------------------------------------------------------------------
E|----------------------------------------------------------------------------------------------

Stave 6:

E|-----------------------------------5--------------------------------------------------------------
B|---------------10\8-----8--7--6b8-----8r6---------------------------------------------------------
G|--9/11------9--------9---------------------7--7--------------6--9--6--9---------------------------
D|--------11------------------------------------------7--8--9--------------11--10--9--7--9p7-----7--
A|--------------------------------------------------------------------------------------------9-----
E|--------------------------------------------------------------------------------------------------

Stave 7:

E|-----------------------------------------------------------------------------------------------------
B|-----------------------------------------------------------------------------------------------------
G|-------------------------7---------------------------------------9---------9--11p9------9--11p9------
D|--9/10-----9-----7-----------------------7-----7--------7--9/11-----10h11-----------11-----------11--
A|--------9-----9-----8h9-----9\7--5--7/9-----9--------9-----------------------------------------------
E|-----------------------------------------------------------------------------------------------------

Stave 8:

E|-------------------------9--10------------------------------------------------------------------
B|------9--10------10--12-------------------10--10----------10--12------10--12b14r12--12------10--
G|--11---------11-----------------------11--------------11----------11--------------------11------
D|--------------------------------------------------12--------------------------------------------
A|------------------------------------------------------------------------------------------------
E|------------------------------------------------------------------------------------------------

Stave 9:

E|-----------9--9-----------7-----------5-----------3--2--------2-------5-----5--7-----5--7/9--7--9--
B|--------------------------------------------------------5--3-----3/7-----7--------7----------------
G|--7--8--9--------5--6--7-----4--5--6-----2--3--4---------------------------------------------------
D|---------------------------------------------------------------------------------------------------
A|---------------------------------------------------------------------------------------------------
E|---------------------------------------------------------------------------------------------------

Stave 10:

E|--9b11r9--9--7--7--12--17--17--16---------------------------------------------------------------------
B|-----------------------------------19--17--19b21r19--17-----------------19-------------17-------------
G|---------------------------------------------------------19-------------------------------------------
D|-------------------------------------------------------------19--18/19------19--19\17------15/16------
A|--------------------------------------------------------------------------------------------------17--
E|------------------------------------------------------------------------------------------------------

Stave 11:

E|-----9-------------------------------7--7-------------------------------15--14---------------------
B|------------------------8-----8--10--------10--7------------15------15----------15------17/19--15--
G|--7-----9--9p7p6--6-------------------------------7---------------------------------16-------------
D|---------------------7-------------------------------12/16------16---------------------------------
A|---------------------------------------------------------------------------------------------------
E|---------------------------------------------------------------------------------------------------

Stave 12:

E|---------------------------------------------------------------------------------------------------
B|--17------17------15------15\14--15--16--17--13/14-------------------------------------------------
G|----------------------------------------------------16p14------14--16------------------------------
D|------17------16------16-----------------------------------16----------16--14--15--16--14--15--16--
A|---------------------------------------------------------------------------------------------------
E|---------------------------------------------------------------------------------------------------

Stave 13:

E|----------------------------------------12--12/14--12----------12----------14--12--14----------19--
B|--------------14--15------14h15p14--15-----------------14--14----------14--------------17--19------
G|--16------16----------16-------------------------------------------12------------------------------
D|------16-------------------------------------------------------------------------------------------
A|---------------------------------------------------------------------------------------------------
E|---------------------------------------------------------------------------------------------------

Stave 14:

E|--17--19b21--19-----17------17--19b21v--
B|------------------------19--------------
G|----------------------------------------
D|----------------------------------------
A|----------------------------------------
E|----------------------------------------

http://www.guitartabcreator.com
Guitar Tab Creator is intended to store guitar tab created through the tool. It currently does not support in-line text editing. Any text you place in here will be lost. If you need to comment on your tab, please use the "Tab Notes" section located below.