Sound will begin in 5 seconds

mississippi half step englishtown nj sept 3 77

01234567891011121314151617181920212223
E
B
G
D
A
E
B
0 1 2 3 4 5 6 7 8 9 10 11 12 13 14 15 16 17 18 19 20 21 22 23
Song Science #1: How Pros Use 6 Chords to Write Hit Songs
(/) Slide Up  (\) Slide Down  (h) Hammer On  (p) Pull Off  (b) Bend (r) Release (v) Vibrato

Stave 1:

E|-------------------------------------------------------
B|--12b14r12--12--10--12--10------10------10--12/14--12--
G|----------------------------11------11-----------------
D|-------------------------------------------------------
A|-------------------------------------------------------
E|-------------------------------------------------------

Stave 2:

E|--------------------------------------------------------------------------------------------------10--
B|--14--14--14--14--15p14--14--14--14--15p14--14--14--14--14\12--10--12p10------10--------------10------
G|--------------------------------------------------------------------------11------12--11--11----------
D|------------------------------------------------------------------------------------------------------
A|------------------------------------------------------------------------------------------------------
E|------------------------------------------------------------------------------------------------------

Stave 3:

E|--10--9--10p9------7-----5--5--7----------------------------------------------5--4--5--
B|---------------10-----7-----------5-----5--------5-----------5-------------------------
G|-------------------------------------7-----6--7-----6-----------6-----4--5b6-----------
D|-------------------------------------------------------7-----------7-------------------
A|---------------------------------------------------------------------------------------
E|---------------------------------------------------------------------------------------

Stave 4:

E|--5--7--9--12p9------9--10--14----------------------------------------12--14--13--12----------12--
B|-----------------12-------------14\12--10------12p10--10--10--12--14------------------13--14------
G|-------------------------------------------11-----------------------------------------------------
D|--------------------------------------------------------------------------------------------------
A|--------------------------------------------------------------------------------------------------
E|--------------------------------------------------------------------------------------------------

Stave 5:

E|---------------------------------------------------------------------10--12----------10--12--14b16r14--
B|--14--13--12--10--12--11--10------10--12p10------10--12------10--12----------10--12--------------------
G|------------------------------11-------------11----------11--------------------------------------------
D|-------------------------------------------------------------------------------------------------------
A|-------------------------------------------------------------------------------------------------------
E|-------------------------------------------------------------------------------------------------------

Stave 6:

E|--14p13p12--12--12--14------17v--17-----17p16----------------------------------14--17--14---------
B|------------------------15---------------------17--17b19--17b19r15--17--17b19--------------17b19--
G|--------------------------------------------------------------------------------------------------
D|--------------------------------------------------------------------------------------------------
A|--------------------------------------------------------------------------------------------------
E|--------------------------------------------------------------------------------------------------

Stave 7:

E|---------------------------------------17-------------------------------------------------------------
B|--19r17--15-----15--17--17--17--16b18------18r16--------------------------------------14--15--16--17--
G|--------------------------------------------------18--17--16--14----------14------14------------------
D|------------------------------------------------------------------16--14------16----------------------
A|------------------------------------------------------------------------------------------------------
E|------------------------------------------------------------------------------------------------------

Stave 8:

E|--17--15--14------------------------------------------------------------------------------
B|--------------15----------15----------------------------------14--14--15--14--15--16--17--
G|------------------14--16------14------14--14------14--16--16------------------------------
D|----------------------------------16----------14------------------------------------------
A|------------------------------------------------------------------------------------------
E|------------------------------------------------------------------------------------------

http://www.guitartabcreator.com
Guitar Tab Creator is intended to store guitar tab created through the tool. It currently does not support in-line text editing. Any text you place in here will be lost. If you need to comment on your tab, please use the "Tab Notes" section located below.