Sound will begin in 5 seconds

mississippi 5 7 77 verse solo 2

01234567891011121314151617181920212223
E
B
G
D
A
E
B
0 1 2 3 4 5 6 7 8 9 10 11 12 13 14 15 16 17 18 19 20 21 22 23
Song Science #1: How Pros Use 6 Chords to Write Hit Songs
(/) Slide Up  (\) Slide Down  (h) Hammer On  (p) Pull Off  (b) Bend (r) Release (v) Vibrato

Stave 1:

E|----------------------------------------------12----------12--15/17--17--14--
B|-----------------------12--13-----12--13--15------13--15---------------------
G|---------12h14--13h14--------------------------------------------------------
D|--13h14----------------------------------------------------------------------
A|-----------------------------------------------------------------------------
E|-----------------------------------------------------------------------------

Stave 2:

E|----------14--15--14----------14-----------------------------------------------------------
B|--15--17--------------17--15------17--15--14--13v----------13--15p14p13--12h13p12------12--
G|---------------------------------------------------14------------------------------14------
D|-------------------------------------------------------15----------------------------------
A|-------------------------------------------------------------------------------------------
E|-------------------------------------------------------------------------------------------

Stave 3:

E|-------------------------------------------------------------------------------------------
B|---------12--13--15--16--16--------------------------------------------14------------------
G|--13h14-------------------------16--15--14------14p13--------------13----------------------
D|--------------------------------------------16---------14--14--14----------14--12--12--12--
A|-------------------------------------------------------------------------------------------
E|-------------------------------------------------------------------------------------------

Stave 4:

E|------------------------------------------------------7--8---------7h8p7-------------7------
B|--------------------------8/10--8-----8--8-----8--10--------9--10---------10--9--10-----10--
G|-----------------------------------9--------9-----------------------------------------------
D|------10------10------10--------------------------------------------------------------------
A|--12------12------12------------------------------------------------------------------------
E|--------------------------------------------------------------------------------------------

Stave 5:

E|--10b12r10--8------8------7h8p7--8--10--12--13--12--10--------------------------------------------
B|---------------10-----10--------------------------------13p12--10-----------------13--10----------
G|-------------------------------------------------------------------12------10/11----------11------
D|-----------------------------------------------------------------------12---------------------12--
A|--------------------------------------------------------------------------------------------------
E|--------------------------------------------------------------------------------------------------

Stave 6:

E|---------------------------------------
B|---------------------------------------
G|----------------------------12--10-----
D|--11--10--9------9--12--12-------------
A|-------------10------------------------
E|------------------------------------8--

http://www.guitartabcreator.com
Guitar Tab Creator is intended to store guitar tab created through the tool. It currently does not support in-line text editing. Any text you place in here will be lost. If you need to comment on your tab, please use the "Tab Notes" section located below.