Sound will begin in 5 seconds

mississippi 5 7 77 verse solo 1

01234567891011121314151617181920212223
E
B
G
D
A
E
B
0 1 2 3 4 5 6 7 8 9 10 11 12 13 14 15 16 17 18 19 20 21 22 23
Song Science #1: How Pros Use 6 Chords to Write Hit Songs
(/) Slide Up  (\) Slide Down  (h) Hammer On  (p) Pull Off  (b) Bend (r) Release (v) Vibrato

Stave 1:

E|----------------------------------------------------------------------------------------------------
B|---------------------------------7--8-----8--8p7h8--10--10p9p8p7--7-----7---------------------------
G|------------------5-----5--7--9--------------------------------------9-----9--8--7p6--5--7p5-----5--
D|-----7--5h7p5---------------------------------------------------------------------------------7-----
A|---------------7------------------------------------------------------------------------------------
E|--5-------------------------------------------------------------------------------------------------

Stave 2:

E|---------------------------------------------------------------------------------------------
B|-------------5--6-----5-------7--10--7-------------------------------------------------------
G|-------5--7--------------7/8------------8-------------------------------------------------5--
D|--6h7--------------------------------------9--8--7-----5h6-----------------5--6--7--5--7-----
A|----------------------------------------------------7-------7p5h7-----6h7--------------------
E|---------------------------------------------------------------------------------------------

Stave 3:

E|-----------------------------------------------------------------------------------------------------
B|-----------5-----------------------5h6p5---------------------------5h6p5-----5--------------------7--
G|-----5--7--------5-----5-----5--7---------7--5h7p5--------------5---------7-----5h7p5-----5----------
D|--7-----------------7-----7-------------------------7-----6--7-------------------------7-----6/7-----
A|-----------------------------------------------------------------------------------------------------
E|-----------------------------------------------------------------------------------------------------

Stave 4:

E|-------------------------------------------------
B|-----7\5-----------------------------------------
G|---------------------3h4--0--2-------------------
D|--7-------5--3/4----------------5\3--------------
A|------------------5---------------------0--2--3--
E|-------------------------------------3-----------

http://www.guitartabcreator.com
Guitar Tab Creator is intended to store guitar tab created through the tool. It currently does not support in-line text editing. Any text you place in here will be lost. If you need to comment on your tab, please use the "Tab Notes" section located below.