Sound will begin in 5 seconds

mississippi 5 7 77 jam solo 2 part 2

01234567891011121314151617181920212223
E
B
G
D
A
E
B
0 1 2 3 4 5 6 7 8 9 10 11 12 13 14 15 16 17 18 19 20 21 22 23
Song Science #1: How Pros Use 6 Chords to Write Hit Songs
(/) Slide Up  (\) Slide Down  (h) Hammer On  (p) Pull Off  (b) Bend (r) Release (v) Vibrato

Stave 1:

E|--17--17--17b19--19r17--15---------17----------------------------------------------------19b21--19--
B|----------------------------17b19------19r17--15------15------17--19--17-----17--17--17-------------
G|--------------------------------------------------16------16----------------------------------------
D|----------------------------------------------------------------------------------------------------
A|----------------------------------------------------------------------------------------------------
E|----------------------------------------------------------------------------------------------------

Stave 2:

E|--16--17--19p17p16h17--------------------------------------------------------------------
B|-----------------------17--19--17--17--15--17--15--14------14----------------------------
G|-------------------------------------------------------16------16b18r16--14--16------14--
D|---------------------------------------------------------------------------------16------
A|-----------------------------------------------------------------------------------------
E|-----------------------------------------------------------------------------------------

Stave 3:

E|-------------------------------------15--------------------------19--17--17--19--17--19b21--
B|----------------------15--13--15/17------16h17/19-----20--18/19-----------------------------
G|----------14--16--14------------------------------------------------------------------------
D|--14--16------------------------------------------------------------------------------------
A|--------------------------------------------------------------------------------------------
E|--------------------------------------------------------------------------------------------

Stave 4:

E|--21r19--19--------------17--16----------16------------------------------------------------------
B|-------------17--18--19----------17--19------17------------------------------15--14------14------
G|-------------------------------------------------18--16--18--16--14------14----------16------16--
D|---------------------------------------------------------------------16--------------------------
A|-------------------------------------------------------------------------------------------------
E|-------------------------------------------------------------------------------------------------

Stave 5:

E|----------------------------------------------------------------------------------------------
B|----------------------------------------14------12------12------10--------8-----7----------7--
G|------14h16--14------14-----------------------------------------------------------------------
D|--16-------------16------16--14-----14------12------12------11---------9-----7-----3/7--7-----
A|----------------------------------------------------------------------------------------------
E|----------------------------------------------------------------------------------------------

http://www.guitartabcreator.com
Guitar Tab Creator is intended to store guitar tab created through the tool. It currently does not support in-line text editing. Any text you place in here will be lost. If you need to comment on your tab, please use the "Tab Notes" section located below.