Sound will begin in 5 seconds

mississippi 5 7 77 jam solo 2

01234567891011121314151617181920212223
E
B
G
D
A
E
B
0 1 2 3 4 5 6 7 8 9 10 11 12 13 14 15 16 17 18 19 20 21 22 23
Song Science #1: How Pros Use 6 Chords to Write Hit Songs
(/) Slide Up  (\) Slide Down  (h) Hammer On  (p) Pull Off  (b) Bend (r) Release (v) Vibrato

Stave 1:

E|----------------------------------------------------------------------------------------------
B|-------------------------------------10-----8--10--12-----10--12--10--------------10------10--
G|----------4--6--7--6--4--6--7--8--9------9----------------------------11--10--11------11------
D|--6/7--7--------------------------------------------------------------------------------------
A|----------------------------------------------------------------------------------------------
E|----------------------------------------------------------------------------------------------

Stave 2:

E|----------------------10--9------10-----10p9--------------12--12--14--14--12v--
B|--12--10------11--12---------12---------------10------12-----------------------
G|----------11--------------------------------------12---------------------------
D|-------------------------------------------------------------------------------
A|-------------------------------------------------------------------------------
E|-------------------------------------------------------------------------------

Stave 3:

E|----------------------------------------------------17------17--19b21--17--19------17--
B|----------17--19p17------17--19p17------17--18--19------19---------------------19------
G|------18-------------18-------------18-------------------------------------------------
D|--19-----------------------------------------------------------------------------------
A|---------------------------------------------------------------------------------------
E|---------------------------------------------------------------------------------------

Stave 4:

E|--------------17--17---------17--17---------------------------------------------------------
B|--17--18--19----------18h19----------19p17------17--19p17------17---------12b14r12--10------
G|--------------------------------------------18-------------18------18-------------------11--
D|--------------------------------------------------------------------------------------------
A|--------------------------------------------------------------------------------------------
E|--------------------------------------------------------------------------------------------

Stave 5:

E|--14--12--------------------------------------------------------------------------
B|----------14--12--12b14r12--10------10--12--10------10---------10--10--12b14--12--
G|--------------------------------11--------------11------10h11---------------------
D|----------------------------------------------------------------------------------
A|----------------------------------------------------------------------------------
E|----------------------------------------------------------------------------------

Stave 6:

E|--------------------------------9h10p9----------9---------------------9----------------------------
B|-------------10---------10--12----------12--10-----12p10------10--12-----12p10------10--12--10-----
G|--9--10--11---------11------------------------------------11--------------------11--------------11\
D|---------------------------------------------------------------------------------------------------
A|---------------------------------------------------------------------------------------------------
E|---------------------------------------------------------------------------------------------------

Stave 7:

E|---------------------------------7--7-------------------------------------------
B|-------------7--8--8--7--10--10--------10--7--10v-------------------------------
G|--9p7-----7-------------------------------------------11------9--9--9h11p9------
D|-------9--------------------------------------------------11----------------11--
A|--------------------------------------------------------------------------------
E|--------------------------------------------------------------------------------

Stave 8:

E|------------------------------------------------------------------------------5-----5--5--5-----5--
B|------------------------------------------------------------------------5--7-----7-----------7-----
G|---------------------------------------------------------------7--6--7-----------------------------
D|--------------------4--6--7--7/9--7--------7--9p7-----7--8--9--------------------------------------
A|--------4--5--6--7----------------------9----------9-----------------------------------------------
E|--5--7---------------------------------------------------------------------------------------------

Stave 9:

E|--4--5--7--9------7--9--10p9h10--11--12--10--10---------12---------------------------------------12--
B|--------------10---------------------------------12b14------14r12--10------10--12p10------12b14------
G|-----------------------------------------------------------------------11-------------11-------------
D|-----------------------------------------------------------------------------------------------------
A|-----------------------------------------------------------------------------------------------------
E|-----------------------------------------------------------------------------------------------------

Stave 10:

E|--12/14--12------12--14--12------12--14--12------12--14b16r14--12-----------------------------
B|-------------14--------------14--------------14--------------------15---------15--17--15------
G|-----------------------------------------------------------------------15h16--------------16--
D|----------------------------------------------------------------------------------------------
A|----------------------------------------------------------------------------------------------
E|----------------------------------------------------------------------------------------------

Stave 11:

E|----------------------------------------------------------------------------------------------------
B|-------------15--15----------------------------17--17---------19--17---------19--17---------19--17--
G|--14--15/16----------16---------16--14--16/18----------17h18----------17h18----------17h18----------
D|-------------------------15h16----------------------------------------------------------------------
A|----------------------------------------------------------------------------------------------------
E|----------------------------------------------------------------------------------------------------

Stave 12:

E|--------------------------------------------------------------------------------------------------------
B|------------------------------------------------------------------------------------------------17--17--
G|--18\16--14h16p14------14----------14/16--14------14--16p14------14--16--17--16-----16--17--18----------
D|-------------------16------16-----------------16-------------16-----------------------------------------
A|-------------------------------17-----------------------------------------------------------------------
E|--------------------------------------------------------------------------------------------------------

Stave 13:

E|------------------------------------------------------------------------------------------------
B|------19p17------17----------17--17---------19--19----------------------------------------------
G|--18---------18------16--18----------17/18----------18\16--14h16p14------14------14--16p14------
D|---------------------------------------------------------------------16------16-------------16--
A|------------------------------------------------------------------------------------------------
E|------------------------------------------------------------------------------------------------

Stave 14:

E|------------------------------------------------------------------------------------------------------
B|--------------------------------------17---------17--19--17---------19--17--17----------------19--17--
G|--14--16p14------14--16p14h16--16/18------17h18--------------17h18--------------17/18--17/18----------
D|-------------16---------------------------------------------------------------------------------------
A|------------------------------------------------------------------------------------------------------
E|------------------------------------------------------------------------------------------------------

Stave 15:

E|-------------------------------------------------------------------------------------17v--17v--
B|--17---------19--17-----------------------------------------------17--17--19--19---------------
G|------17h18----------18--16/18\16--14------14--14------14--16/18-------------------------------
D|---------------------------------------16----------16------------------------------------------
A|-----------------------------------------------------------------------------------------------
E|-----------------------------------------------------------------------------------------------

Stave 16:

E|--
B|--
G|--
D|--
A|--
E|--

http://www.guitartabcreator.com
Guitar Tab Creator is intended to store guitar tab created through the tool. It currently does not support in-line text editing. Any text you place in here will be lost. If you need to comment on your tab, please use the "Tab Notes" section located below.