Sound will begin in 5 seconds

limb by limb amsterdam

01234567891011121314151617181920212223
E
B
G
D
A
E
B
0 1 2 3 4 5 6 7 8 9 10 11 12 13 14 15 16 17 18 19 20 21 22 23
Song Science #1: How Pros Use 6 Chords to Write Hit Songs
(/) Slide Up  (\) Slide Down  (h) Hammer On  (p) Pull Off  (b) Bend (r) Release (v) Vibrato

Stave 1:

E|-------------------------------------------------------------------------------------------------------
B|---------10-------------------10--11------10--13--10--13p10v---------10--11p10--11p10------10----------
G|--13b15------13b15-----12/13----------12-------------------------12--------------------12------10------
D|---------------------------------------------------------------------------------------------------10--
A|-------------------------------------------------------------------------------------------------------
E|-------------------------------------------------------------------------------------------------------

Stave 2:

E|--------------------------------------------------------------------------------------
B|--------------------------------------------------------------------------------------
G|--------------12--10------------------------------------------------------------------
D|--10--12--13----------13--12--10--11/12--10--------------------------10--8--7---------
A|---------------------------------------------13--12------10--12--13------------10--8--
E|-----------------------------------------------------13-------------------------------

Stave 3:

E|-----------------------------------------------------------------------------------------------------
B|-----------------------------------------------------------------------------------------------------
G|---------------------------------------------10h12p10--10--12/14----------10--10--10------12--12/14--
D|-----7--7--7--7-----10-----7--10--8--10--12-----------------------10--12--------------12-------------
A|--8--------------8------8----------------------------------------------------------------------------
E|-----------------------------------------------------------------------------------------------------

Stave 4:

E|-----------------------------------------------------------------------------------------------
B|--13------13--10--10--11--11p10--11p10------10-------------------------------------------------
G|------14--------------------------------12------10----------------------10---------------------
D|----------------------------------------------------10------10--12--13------13\12--10--13--12--
A|--------------------------------------------------------12-------------------------------------
E|-----------------------------------------------------------------------------------------------

Stave 5:

E|----------------------------------------------------------------------------------------
B|----------------------------------------------------------------------------------------
G|----------------------------------------------------------------------------12--12p10v--
D|-----7--10--8------7--------------7--8--7--8--10/12--10---------10--12--13--------------
A|--8------------10-----8--8--8--8-------------------------13p12--------------------------
E|----------------------------------------------------------------------------------------

Stave 6:

E|------13------13--13------13--11--10h11--10-----------------------------------------------------------
B|---------------------------------------------13--11--13v------13--------------------------------------
G|--10------10----------10----------------------------------14------14--15------15------15--17--15--14--
D|--------------------------------------------------------------------------17------17------------------
A|------------------------------------------------------------------------------------------------------
E|------------------------------------------------------------------------------------------------------

Stave 7:

E|--13--------------------------------------------------------------------------------------------
B|------14p13------------------13-----------------------------------------------------------------
G|-------------15--14------14------14/15------14------------------------10--12--14\12p10------10--
D|---------------------15-----------------17------15------------10--12--------------------12------
A|----------------------------------------------------15------------------------------------------
E|------------------------------------------------------------------------------------------------

Stave 8:

E|------------------------------------------
B|------------------------------------------
G|--------------10--------------------------
D|--12------12------12b13------12------10v--
A|------13-----------------13------13-------
E|------------------------------------------

http://www.guitartabcreator.com
Guitar Tab Creator is intended to store guitar tab created through the tool. It currently does not support in-line text editing. Any text you place in here will be lost. If you need to comment on your tab, please use the "Tab Notes" section located below.