Sound will begin in 5 seconds

licks

01234567891011121314151617181920212223
E
B
G
D
A
E
B
0 1 2 3 4 5 6 7 8 9 10 11 12 13 14 15 16 17 18 19 20 21 22 23
Song Science #1: How Pros Use 6 Chords to Write Hit Songs
(/) Slide Up  (\) Slide Down  (h) Hammer On  (p) Pull Off  (b) Bend (r) Release (v) Vibrato

Stave 1:

E|----------3-----------------------------------------------
B|-------3-----6--5--3-----3--------------------------------
G|--3h4-----------------6-----3h4---------------------------
D|---------------------------------5p3----------------------
A|--------------------------------------5--3--1h2-----------
E|-------------------------------------------------3--1--3--

Stave 2:

E|---------------------------------------------------------
B|---------------------------------------------------------
G|----------------------------5--3h4-----------------------
D|-------3-------5--3--5p3h5----------5-----3-------5p3h5--
A|--4/5-----4h5--------------------------5-----4h5---------
E|---------------------------------------------------------

Stave 3:

E|----------------------
B|--6b8--6--------------
G|----------7--5--4-----
D|-------------------5--
A|----------------------
E|----------------------

Stave 4:

E|----------------------3------------------------------
B|--6b8--6--3-----3--3-----6--5--3---------------------
G|-------------5--------------------6--5--3h4----------
D|---------------------------------------------5--3h5--
A|-----------------------------------------------------
E|-----------------------------------------------------

Stave 5:

E|-----------6h7--------------------------------------------
B|--6--7--8-------8-----6-----------------------------------
G|-------------------7-----7--6--5--6h7p6--5--3h4-----------
D|-------------------------------------------------5--3--5--
A|----------------------------------------------------------
E|----------------------------------------------------------

Stave 6:

E|---------13--14--15----------13--12------10---------10-------------
B|--13/15--------------14--15----------13------11b13------13r11------
G|---------------------------------------------------------------12--
D|-------------------------------------------------------------------
A|-------------------------------------------------------------------
E|-------------------------------------------------------------------

Stave 7:

E|-------------------------
B|----------------------8--
G|-------7h9p7-----7h9-----
D|--8h9---------9----------
A|-------------------------
E|-------------------------

Stave 8:

E|---------12--10-----------------
B|--11h12----------12--11--10--8--
G|--------------------------------
D|--------------------------------
A|--------------------------------
E|--------------------------------

Stave 9:

E|------------------------------------
B|---------15-------------------------
G|--14/16------16\14--12----------12--
D|------------------------14--12------
A|------------------------------------
E|------------------------------------

Stave 10:

E|--------10--7--------7--10---------7---------------------------------------------
B|-----8------------8---------8--10-----10--8----------------------------8p7-------
G|--9------------9---------------------------------------7-------9--7h9-------7h9--
D|------------------------------------------------9p7h9-----8h9--------------------
A|---------------------------------------------------------------------------------
E|---------------------------------------------------------------------------------

Stave 11:

E|------7--9--9b11--7------------------
B|--10-----------------10--8-----------
G|----------------------------9--7--6--
D|-------------------------------------
A|-------------------------------------
E|-------------------------------------

Stave 12:

E|--10--7--10p7-------------------------------------------
B|---------------10--8--10p8-----8------------------------
G|----------------------------9-----9p7-----7-----7--9p7--
D|---------------------------------------9-----9----------
A|--------------------------------------------------------
E|--------------------------------------------------------

Stave 13:

E|------------------------------------------------------
B|--------------------------12--------------------------
G|--------------12--13--14------14--12------------------
D|--12--13--14--------------------------14--12------12--
A|----------------------------------------------14------
E|------------------------------------------------------

Stave 14:

E|---------12------------------------------------
B|--15b17------15--12----------------------------
G|---------------------15--14--12--15p14p12------
D|-------------------------------------------14--
A|-----------------------------------------------
E|-----------------------------------------------

Stave 15:

E|-------------------------------------------------------------16------16--17p16--17--16------16------
B|--15--17p15--17--15------15------------15------15--17p15h17------17---------------------17------17--
G|---------------------16------16p14h16------16-------------------------------------------------------
D|----------------------------------------------------------------------------------------------------
A|----------------------------------------------------------------------------------------------------
E|----------------------------------------------------------------------------------------------------

http://www.guitartabcreator.com
Guitar Tab Creator is intended to store guitar tab created through the tool. It currently does not support in-line text editing. Any text you place in here will be lost. If you need to comment on your tab, please use the "Tab Notes" section located below.