Sound will begin in 5 seconds

to lay me down 6/26/74

01234567891011121314151617181920212223
E
B
G
D
A
E
B
0 1 2 3 4 5 6 7 8 9 10 11 12 13 14 15 16 17 18 19 20 21 22 23
Song Science #1: How Pros Use 6 Chords to Write Hit Songs
(/) Slide Up  (\) Slide Down  (h) Hammer On  (p) Pull Off  (b) Bend (r) Release (v) Vibrato

Stave 1:

E|-------------------------------------------------------------------------------------------------
B|----------3--5--3--------------------------------------------------------------------------------
G|--0--2/4-----------2/4--2--0--2-----0--2--0------------------------------------------------------
D|---------------------------------------------2--0------------------------------------------------
A|---------------------------------------------------1/2--------------2-----2--2/3--2--0-----0-----
E|--------------------------------------------------------3--------3-----3----------------3-----3--

Stave 2:

E|----------------------------------------------15--17/19-------------------------------------------
B|--15--17--15---------15---------------15--17-------------15--17-----------------------------------
G|--------------15/16------14/16-----------------------------------16\14--12-------------12--14/16--
D|-------------------------------------------------------------------------------12--14-------------
A|--------------------------------------------------------------------------------------------------
E|--------------------------------------------------------------------------------------------------

Stave 3:

E|---------------------------------------------------------------------------------------17/19--
B|-----------------------------------------------------------------------------------15---------
G|--16/17--16--14--12--14/16--14--12--12------------------------------12--12--14/16-------------
D|----------------------------------------14--12--10--12--8/9-----------------------------------
A|-------------------------------------------------------------10-------------------------------
E|----------------------------------------------------------------------------------------------

Stave 4:

E|--17--15--17--15\14--14-------------------------------------------------------------------17--
B|-------------------------15--15--17/19--19-----19p18p17--19p18p17---------------------17------
G|-------------------------------------------------------------------18----------17/18----------
D|-----------------------------------------------------------------------19--19-----------------
A|----------------------------------------------------------------------------------------------
E|----------------------------------------------------------------------------------------------

Stave 5:

E|--16--17--19p17p16--16-----------------------------------------------------------
B|------------------------17----------15-------------17--16------15----------------
G|----------------------------16--18-------------16----------16------16b17r16------
D|-------------------------------------------18--------------------------------17--
A|---------------------------------------------------------------------------------
E|---------------------------------------------------------------------------------

Stave 6:

E|-----------------------------------------------------------------12--------------
B|------15h17--15----------------------------15--15-----13p12----------15--13------
G|--16-------------15/16--14--12--13/14--14--------------------14--------------14--
D|---------------------------------------------------------------------------------
A|---------------------------------------------------------------------------------
E|---------------------------------------------------------------------------------

Stave 7:

E|------------------------------------------------------------------------------------------
B|-------------------------------------------------------------------------------13---------
G|------14h16p14--12h14p12---------12--14p12h14--14b16r14--12--12------12h14p12------12h14--
D|--17----------------------12/14----------------------------------14-----------------------
A|------------------------------------------------------------------------------------------
E|------------------------------------------------------------------------------------------

Stave 8:

E|-------------------------------------------------------------------------------------------
B|---------------------12--13p12------15--13--12h13p12--13--12/13--13--12/13--12---------12--
G|-------------12--14-------------14----------------------------------------------14p12------
D|--12--12h14--------------------------------------------------------------------------------
A|-------------------------------------------------------------------------------------------
E|-------------------------------------------------------------------------------------------

Stave 9:

E|--15--13--12----------------------------------------------------------------------------------------
B|--------------15--13------13------------------------------------------------------------------------
G|----------------------14------12----------------12-------------12--12-------------------------------
D|----------------------------------14--12h14---------12h14--14----------12h14--12--12--10p9----------
A|--------------------------------------------------------------------------------------------10------
E|------------------------------------------------------------------------------------------------10--

Stave 10:

E|-------------------------------------------------------------
B|----------12/13--12------------------------------------------
G|------12-------------14--12----------------------------------
D|--12---------------------------------------------------------
A|--------------------------------------------0--2/3--2--0-----
E|-----------------------------------------3----------------3--

http://www.guitartabcreator.com
Guitar Tab Creator is intended to store guitar tab created through the tool. It currently does not support in-line text editing. Any text you place in here will be lost. If you need to comment on your tab, please use the "Tab Notes" section located below.