Sound will begin in 5 seconds

keepers keystone solo 1

01234567891011121314151617181920212223
E
B
G
D
A
E
B
0 1 2 3 4 5 6 7 8 9 10 11 12 13 14 15 16 17 18 19 20 21 22 23
Song Science #1: How Pros Use 6 Chords to Write Hit Songs
(/) Slide Up  (\) Slide Down  (h) Hammer On  (p) Pull Off  (b) Bend (r) Release (v) Vibrato

Stave 1:

E|----------------------------------------------------------------------------------------
B|---------------6------------------------------------------------------------------------
G|--5b7r5--3--------3--5b7--5--3----------------------------------------------------------
D|------------5-------------------5p3-----5--4/5--3----------------------------------4/5--
A|-------------------------------------5-------------5--4--3--1b2-------------------------
E|-----------------------------------------------------------------3-----3--1--3--3-------

Stave 2:

E|---------------3----------------------------------------------------------------------------------
B|------------------6--3----------------------------------------------------------------------------
G|--7r5--3--5b7-----------5b7-----5b7r5--3--4/5--4/5--3-----------5b7--7r5--3b4-----3--5b7r5--3-----
D|-------------------------------------------------------5--3--5-----------------5---------------5--
A|--------------------------------------------------------------------------------------------------
E|--------------------------------------------------------------------------------------------------

Stave 3:

E|----------------------------------------6-----6--8b10r8--6-----------6-----6--8--8/10--
B|--8p6h8--8--7/8-----6-----6-----8p6--------8----------------8-----8-----8--------------
G|-----------------7-----7-----7-------7-------------------------------------------------
D|---------------------------------------------------------------------------------------
A|---------------------------------------------------------------------------------------
E|---------------------------------------------------------------------------------------

Stave 4:

E|--10\8--6h8--6--------------------------------------------------------------------------------------
B|----------------8--6--------6--7/8--6--6--6--7/8--6-----6-----7/8--6--------------------------------
G|----------------------7--5---------------------------7-----7----------7--5--3--5b7r5p3--3-----5-----
D|-------------------------------------------------------------------------------------------5-----5--
A|----------------------------------------------------------------------------------------------------
E|----------------------------------------------------------------------------------------------------

Stave 5:

E|-------3----------------------------------------------------------------------------------
B|------------------------------------------------------------------------------------------
G|--5b7-----7r5p3----------------3--3----------------3b4---------------3-----2--4--2--------
D|-----------------5--------3/5--------3-------3--5----------3h5p3--------5-----------5--3--
A|--------------------5-------------------4/5-------------5---------5-----------------------
E|------------------------------------------------------------------------------------------

Stave 6:

E|-------------------------------------------------------------------------------------------------------
B|------------------------6-------6--8-------------------------------------------------------------------
G|-----3b4-----------5/7-----6h7--------7\5--3-----------2--4--2------------------------------------3b4--
D|--5-------5-----5-----------------------------5-----5-----------5--3--5-------------3--5--3/5--5-------
A|-------------5-----------------------------------5--------------------------3/5--5---------------------
E|-------------------------------------------------------------------------------------------------------

Stave 7:

E|---------------------------------------------------------------------------------------------------
B|-------------------------------------------------------6/8--7--8--7-----------6--------------------
G|--------5/7--6--7--6--7--6--7--6--5--7\5--3h5--3b4-------------------7--6--7-----7--6--5--5--3-----
D|--5--3----------------------------------------------5-------------------------------------------5--
A|---------------------------------------------------------------------------------------------------
E|---------------------------------------------------------------------------------------------------

Stave 8:

E|-------------------------------------------------6/7-------------------------------
B|-------------------------------------------6--8----------13b15--15--13--15\13--11--
G|-----2--4--2-----------------------4--5/7------------------------------------------
D|--5-----------5--3--5-----4--5--5--------------------------------------------------
A|-----------------------------------------------------------------------------------
E|-----------------------------------------------------------------------------------

Stave 9:

E|--------------------------------------13--15--17--17--15------------------------------------------------
B|--15b17--15--17\15--13--15b17-----15----------------------18--15------------------------15--18--17--18--
G|------------------------------------------------------------------17--15h16------15h16------------------
D|-----------------------------------------------------------------------------17-------------------------
A|--------------------------------------------------------------------------------------------------------
E|--------------------------------------------------------------------------------------------------------

Stave 10:

E|-------------------------------------------------------------------------------------------
B|--15---------------------------------------------------------------------------------------
G|------17--15h16----------------------------------------------------------------------------
D|-----------------17p15h17--15---------17p15------15----------------------------15--14--13--
A|-------------------------------16h17---------17------17\15--13--17\15--13------------------
E|---------------------------------------------------------------------------15--------------

Stave 11:

E|---------------------------------------------------------------------------
B|--------------------------------11\0---------------------------------------
G|---------10---------10--11--12-----------2--4--2---------------------------
D|--11/12------11h12--------------------5-----------5--3----------0----------
A|--------------------------------------------------------0--1/2-----1/2-----
E|------------------------------------------------------------------------3--

http://www.guitartabcreator.com
Guitar Tab Creator is intended to store guitar tab created through the tool. It currently does not support in-line text editing. Any text you place in here will be lost. If you need to comment on your tab, please use the "Tab Notes" section located below.