Sound will begin in 5 seconds

keepers keystone

01234567891011121314151617181920212223
E
B
G
D
A
E
B
0 1 2 3 4 5 6 7 8 9 10 11 12 13 14 15 16 17 18 19 20 21 22 23
Song Science #1: How Pros Use 6 Chords to Write Hit Songs
(/) Slide Up  (\) Slide Down  (h) Hammer On  (p) Pull Off  (b) Bend (r) Release (v) Vibrato

Stave 1:

E|----------------13--15-----15p14p13----------------------------13h15--15--15--15--
B|--13b15-----13-----------------------15--13--13--13h15-----15---------------------
G|----------------------------------------------------------------------------------
D|----------------------------------------------------------------------------------
A|----------------------------------------------------------------------------------
E|----------------------------------------------------------------------------------

Stave 2:

E|-----------------------------------------------------------------------------------------------
B|--13b15r13--11------13--12/13--11--------------------------------------------------------------
G|----------------12-----------------12p10------12--11/12--10---------12---------12------10--12--
D|------------------------------------------12-----------------12p10---------12------12----------
A|-----------------------------------------------------------------------------------------------
E|-----------------------------------------------------------------------------------------------

Stave 3:

E|--------------------------------------------------------------------------------------------13---------
B|-------------------------------------11b12--------------13b15--13b15r13--11------11--13/15------14h15--
G|--10--10-------------12------10--12---------12--12---------------------------12------------------------
D|----------12-----12------12----------------------------------------------------------------------------
A|----------------------------------------------------10-------------------------------------------------
E|-------------------------------------------------------------------------------------------------------

Stave 4:

E|--13------14--14/15--13------------15------13--15--17p15p13--15--13/15--13------13/15--13------------
B|------15-----------------15p14h15------15-----------------------------------15-------------15p14h15--
G|-----------------------------------------------------------------------------------------------------
D|-----------------------------------------------------------------------------------------------------
A|-----------------------------------------------------------------------------------------------------
E|-----------------------------------------------------------------------------------------------------

Stave 5:

E|--13/15--13--------------15------13------15------13------15-----15--16p15p13--15--14/15--
B|-------------15--14--15------15------15------15------15----------------------------------
G|-----------------------------------------------------------------------------------------
D|-----------------------------------------------------------------------------------------
A|-----------------------------------------------------------------------------------------
E|-----------------------------------------------------------------------------------------

Stave 6:

E|--15------------------------------------------------------------------------------------------
B|------18--15------18--------------------------------------------------------------------------
G|--------------17------17h19--15/16------17------15h16-----------------------------------------
D|------------------------------------17------17---------17--15------17-------------------------
A|---------------------------------------------------------------17------17--15--13h14----------
E|--------------------------------------------------------------------------------------15--15--

Stave 7:

E|-----------------------------------------------------------------------------------------------------
B|--------------------------------------------------11/12--11/12---------------------------------------
G|--10/12--10---------12p10------10h12p10h12p10h12----------------12--10--12--10-----------------------
D|-------------11h12---------12---------------------------------------------------12\10--12\10--8------
A|-------------------------------------------------------------------------------------------------10--
E|-----------------------------------------------------------------------------------------------------

Stave 8:

E|--------------------------------------------------------------------------------------------------
B|---------------------------------------11b13----------11b13------11b13------11b13--11b13------11--
G|---------10---------12--10------10h12---------12--10---------12---------12----------------12------
D|--10/12------11h12----------12--------------------------------------------------------------------
A|--------------------------------------------------------------------------------------------------
E|--------------------------------------------------------------------------------------------------

Stave 9:

E|--------------------------------------13--13-----13--13--13--13--13--13--13--13--13p12p10--
B|--13b15r13--11---------13--11--------------------------------------------------------------
G|----------------12-------------------------------------------------------------------------
D|-------------------------------12----------------------------------------------------------
A|-------------------------------------------------------------------------------------------
E|-------------------------------------------------------------------------------------------

Stave 10:

E|---------15--13--10-----------------------------------------------------------------------------
B|--13b15--------------13------13--11b12------11b12-----------------------------------------------
G|-------------------------12-------------12---------12--10------12--11/12--12--10----------------
D|-----------------------------------------------------------12---------------------12\10--8------
A|--------------------------------------------------------------------------------------------10--
E|------------------------------------------------------------------------------------------------

Stave 11:

E|--------------------
B|--------------------
G|--------------------
D|--10/12--10--8------
A|----------------10--
E|--------------------

http://www.guitartabcreator.com
Guitar Tab Creator is intended to store guitar tab created through the tool. It currently does not support in-line text editing. Any text you place in here will be lost. If you need to comment on your tab, please use the "Tab Notes" section located below.