Sound will begin in 5 seconds

i know you rider 10 12 1981

01234567891011121314151617181920212223
E
B
G
D
A
E
B
0 1 2 3 4 5 6 7 8 9 10 11 12 13 14 15 16 17 18 19 20 21 22 23
Song Science #1: How Pros Use 6 Chords to Write Hit Songs
(/) Slide Up  (\) Slide Down  (h) Hammer On  (p) Pull Off  (b) Bend (r) Release (v) Vibrato

Stave 1:

E|--------------------------------------------------------------------------------------------------------
B|-------3--5b7r5--3--5/7--------------8--10b12--10--8--9b11----------------------------------------------
G|--2/4-----------------------------9----------------------------9b11r9--7--------------------------------
D|----------------------------9h10------------------------------------------9--7-----7--9--7--------------
A|--------------------------------------------------------------------------------9-----------9--8--7--5--
E|--------------------------------------------------------------------------------------------------------

Stave 2:

E|---------------------10--12--12b14r12--10--10--11--12------10---------10--10--10------------------------
B|--10--11/12--10--12------------------------------------13------11h12--------------12b14r12--10------10--
G|------------------------------------------------------------------------------------------------12------
D|--------------------------------------------------------------------------------------------------------
A|--------------------------------------------------------------------------------------------------------
E|--------------------------------------------------------------------------------------------------------

Stave 3:

E|-------------------------------------------------------------------------------------
B|-------------10--12--13\12--10------10-----------------------------------------------
G|------10h11---------------------11------11-----------------------------------11------
D|--12----------------------------------------12p10---------------------10/12------12--
A|---------------------------------------------------12--11--11--10--9-----------------
E|-------------------------------------------------------------------------------------

Stave 4:

E|-----------------------------------------------------------------------------------13--12----------12--
B|--------------------10--13--10--13--13--15p13--15--15/17--17p16p15\13------13--------------15--13------
G|------11--8/10--10-----------------------------------------------------14------14----------------------
D|--12---------------------------------------------------------------------------------------------------
A|-------------------------------------------------------------------------------------------------------
E|-------------------------------------------------------------------------------------------------------

Stave 5:

E|------------------------------------14--14/15--14------14/15--14--------------14/15--14--------------
B|--13--12/13--13/15--15--15------15-----------------15-------------15--15--15-------------15--15--15--
G|----------------------------14-----------------------------------------------------------------------
D|-----------------------------------------------------------------------------------------------------
A|-----------------------------------------------------------------------------------------------------
E|-----------------------------------------------------------------------------------------------------

Stave 6:

E|-----------------19-------------17----------------------------------------------------------------------
B|--19--19--18h19------19--18h19------19--19\17--15--17p15--17--15--17--17b19--17------15--15-------------
G|---------------------------------------------------------------------------------16----------16\15--14--
D|--------------------------------------------------------------------------------------------------------
A|--------------------------------------------------------------------------------------------------------
E|--------------------------------------------------------------------------------------------------------

Stave 7:

E|-------------------------10------10--12--14--14--15--14p12--14--15--17--15p14--15--17--18/19--17--17--
B|---------10------10--12------12-----------------------------------------------------------------------
G|--10h11------11---------------------------------------------------------------------------------------
D|------------------------------------------------------------------------------------------------------
A|------------------------------------------------------------------------------------------------------
E|------------------------------------------------------------------------------------------------------

Stave 8:

E|--15---------15--17--15---------------------------------------------------------------------------
B|------17b19--------------17b19r17--15------15--17--17v--15--17--17b19r17--15--17------17--15--15--
G|---------------------------------------16-----------------------------------------16--------------
D|--------------------------------------------------------------------------------------------------
A|--------------------------------------------------------------------------------------------------
E|--------------------------------------------------------------------------------------------------

Stave 9:

E|----------14-------------13---------12-------------10-----------------------------------
B|----------------------------------------12-------------12b14r12--10------10-------------
G|--16--14------14--14\13------13/12----------10/11--------------------11------10/11------
D|------------------------------------------------------------------------------------12--
A|----------------------------------------------------------------------------------------
E|----------------------------------------------------------------------------------------

Stave 10:

E|--------------8--10--8------8-------------------------------------10/12--12--12p11p10----------10--
B|------10--10------------10-----10--9--8-----------------------13-----------------------13--10------
G|--10-------------------------------------8---------------------------------------------------------
D|--------------------------------------------10-----------------------------------------------------
A|------------------------------------------------10--12---------------------------------------------
E|---------------------------------------------------------------------------------------------------

Stave 11:

E|--10--10--10--10--10\
B|---------------------
G|---------------------
D|---------------------
A|---------------------
E|---------------------

http://www.guitartabcreator.com
Guitar Tab Creator is intended to store guitar tab created through the tool. It currently does not support in-line text editing. Any text you place in here will be lost. If you need to comment on your tab, please use the "Tab Notes" section located below.