Sound will begin in 5 seconds

honey suckle rose bill solo in D

01234567891011121314151617181920212223
E
B
G
D
A
E
B
0 1 2 3 4 5 6 7 8 9 10 11 12 13 14 15 16 17 18 19 20 21 22 23
Song Science #1: How Pros Use 6 Chords to Write Hit Songs
(/) Slide Up  (\) Slide Down  (h) Hammer On  (p) Pull Off  (b) Bend (r) Release (v) Vibrato

Stave 1:

E|------------------------------------------------------------------------------
B|--------------7--10--8--------7-----10--8p7-----7--7-----10p8--------7--7--7--
G|-----------7---------------7-----------------7--------------------7-----------
D|--7--8--9---------------9--------------------------------------9--------------
A|------------------------------------------------------------------------------
E|------------------------------------------------------------------------------

Stave 2:

E|--------------------------------------------------10-----------------------------------------
B|--7----------------7h8p7--------------10------10---------7/10--8--------7-----10p8--------7--
G|-----9p7-----7------------9--7-----7------11-------------------------7-----------------7-----
D|----------9---------------------9---------------------------------9-----------------9--------
A|---------------------------------------------------------------------------------------------
E|---------------------------------------------------------------------------------------------

Stave 3:

E|----------------------------------------------------------------------7--5----------
B|--10--8--------7-----6--5----------------------------------------5/7--------6/7-----
G|------------7--------------6-------------------------------4--7------------------7--
D|---------9--------------------8--7--6\5--4-----------4--7---------------------------
A|--------------------------------------------------5---------------------------------
E|--------------------------------------------8--7------------------------------------

Stave 4:

E|------------------------------------------------------------------------------------------------------
B|----------------------------------------------------------------------------------7/8--8--7-----------
G|-----------------------------------------------------------7----------7/8--9--10-------------9--------
D|-------------------------7------7h8p7-----------------8/9-----6--8/9----------------------------7--7--
A|--5--7--8--9--9--10--10-----10---------10---------10--------------------------------------------------
E|----------------------------------------------10------------------------------------------------------

Stave 5:

E|----------------------------------17--15------14--13p12------9--10----------------------------------
B|--10-----7h8h9h10--8--------7---------------------------------------12--10--8------7------7------7--
G|-------------------------7----------------12-------------11--------------------10-----10-----10-----
D|----------------------9-----------------------------------------------------------------------------
A|----------------------------------------------------------------------------------------------------
E|----------------------------------------------------------------------------------------------------

Stave 6:

E|--------------------------------------------------------------------------------------------
B|------7------7--10---------7------7------7--10------------------------------10--8--------7--
G|--10-----10---------10--------10-----10---------10-----7------------------------------7-----
D|----------------------------------------------------------9-----7--6--5------------9--------
A|--------------------------------------------------------------------------------------------
E|--------------------------------------------------------------------------------------------

Stave 7:

E|------------------------------------------------------------------------------------------
B|--10--8-----------7-----10p8----------------------------------------------------------10--
G|------------7--9-----------------7-----6-----------------------------------6/7--7/11------
D|---------9--------------------9-----------9--7--5--4-----------------4--7-----------------
A|------------------------------------------------------------4--6--7-----------------------
E|------------------------------------------------------5-----------------------------------

Stave 8:

E|-----------------------------------------------------------------------------------------
B|--12/15--12---------10--8--------7-----10--8--------7--------10--8--------7--7--7--7--7--
G|-------------11---------------7------------------7---------------------7-----------------
D|---------------------------9------------------9---------------------9--------------------
A|----------------------------------------------------------7------------------------------
E|-----------------------------------------------------------------------------------------

Stave 9:

E|--6/7--5----------------------------------------------
B|----------5h6p5--3----------3----------------------3--
G|--------------------2--3/4--------2--3p2--------2-----
D|------------------------------------------5--4--------
A|------------------------------------------------------
E|------------------------------------------------------

Stave 10:

E|--------------------------------------------------------------------------------------------
B|-----3-----3-----3-----5-----5/6--6/7--7/8--8/10--10/11--11/12-----------5------9--8-----9--
G|--5-----5-----5-----7-----7----------------------------------------7--7-----11--------------
D|--------------------------------------------------------------------------------------------
A|--------------------------------------------------------------------------------------6-----
E|--------------------------------------------------------------------------------------------

Stave 11:

E|-------------------------------------------17---------------------------------
B|------13--10--12p10--12p10--13--12--10------------10--8--8--7--7--5--5--------
G|--13--------------------------------------------------------------------7--7--
D|------------------------------------------------------------------------------
A|-----------------------------------------------7------------------------------
E|------------------------------------------------------------------------------

Stave 12:

E|---------------------------------------------------------------
B|-------------------------------------10--7---------------------
G|--4----------------------------7--9---------9--8---------------
D|-----5p4--------------------7---------------------10--9--7--5--
A|----------7--6--4--5-------------------------------------------
E|----------------------5----------------------------------------

http://www.guitartabcreator.com
Guitar Tab Creator is intended to store guitar tab created through the tool. It currently does not support in-line text editing. Any text you place in here will be lost. If you need to comment on your tab, please use the "Tab Notes" section located below.