Sound will begin in 5 seconds

honey suckle rose bill solo

01234567891011121314151617181920212223
E
B
G
D
A
E
B
0 1 2 3 4 5 6 7 8 9 10 11 12 13 14 15 16 17 18 19 20 21 22 23
Song Science #1: How Pros Use 6 Chords to Write Hit Songs
(/) Slide Up  (\) Slide Down  (h) Hammer On  (p) Pull Off  (b) Bend (r) Release (v) Vibrato

Stave 1:

E|------------------------------------------------------------------------
B|--------------6--9--7--------6-----9--7p6-----6-----9p7--------6--6--6--
G|-----------6--------------6----------------6----------------6-----------
D|--6--7--8--------------8---------------------------------8--------------
A|------------------------------------------------------------------------
E|------------------------------------------------------------------------

Stave 2:

E|------------------------------------------------9---------------------------------------
B|--6----------------6h7p6--------------9------9--------6/9--7--------6-----9p7--------6--
G|-----8p6-----6------------8--6-----6-----10----------------------6----------------6-----
D|----------8---------------------8-----------------------------8----------------8--------
A|----------------------------------------------------------------------------------------
E|----------------------------------------------------------------------------------------

Stave 3:

E|----------------------------------------------------------------------6--4----------
B|--9--7--------6-----5--4-----------------------------------------4/6--------5/6-----
G|-----------6--------------5--------------------------------3--6------------------6--
D|--------8--------------------7--6--5--4--------------3--6---------------------------
A|-----------------------------------------8--------4---------------------------------
E|--------------------------------------------7--6------------------------------------

Stave 4:

E|-----------------------------------------------------------------------------------------------------
B|------------------------------------------------------------------------------6/7--7--6--------------
G|-----------------------------------------------------6-------------6/7--8--9-------------8-----------
D|-----------------------6-----6h7p6--------------7/8-----5-----7/8---------------------------6--6--6--
A|--4--6--7--8--8--9--9-----9---------9--------9-------------------------------------------------------
E|------------------------------------------9----------------------------------------------------------

Stave 5:

E|--------------------------16--14\13------13--12p11------8--9------------------------------------------
B|--9--6h7h8h9--7--------6--------------------------------------11--9--7-----6-----6-----6-----6-----6--
G|--------------------6----------------11-------------10------------------9-----9-----9-----9-----9-----
D|-----------------8------------------------------------------------------------------------------------
A|------------------------------------------------------------------------------------------------------
E|------------------------------------------------------------------------------------------------------

Stave 6:

E|--------------------------------------------------------------------------------------
B|--9--------6-----6-----6--9-----------------------9--7--------6-----9--7-----------6--
G|-----9--------9-----9--------9--6--------------------------6-----------------6--8-----
D|-----------------------------------8--6--5--4-----------8-----------------8-----------
A|--------------------------------------------------------------------------------------
E|--------------------------------------------------------------------------------------

Stave 7:

E|------------------------------------------------------------------------------------
B|--9p7-------------------------------------------------------------9--11/14--11------
G|----------6-----5--------------------------------------5/6--6/10----------------10--
D|-------8-----------8--6--4--3--------------------3--6-------------------------------
A|----------------------------------------3--4--6-------------------------------------
E|-------------------------------4----------------------------------------------------

Stave 8:

E|--------------------------------------------------------------------5/6--4-----------------------
B|--9--7--------6-----9--7--------6--------9--7--------6--6--6--6--6----------4h5p4--2----------2--
G|-----------6-----------------6--------------------6-----------------------------------1--2/3-----
D|--------8-----------------8-----------6--------8-------------------------------------------------
A|-------------------------------------------------------------------------------------------------
E|-------------------------------------------------------------------------------------------------

Stave 9:

E|-------------------------------------------------------------------------------------------
B|-------------------2-----------2-----2-----2--------4-----4/5----------6-------7--------9--
G|--1--2p1--------1-----------4-----4-----4--------6-----6-------7--7/8-----8/9-----9/11-----
D|----------4--3-----------------------------------------------------------------------------
A|-------------------------------------------------------------------------------------------
E|-------------------------------------------------------------------------------------------

Stave 10:

E|------------------------------------------------------------------------------------------
B|---------10---------11-----------4------8--7-----8----------9-----11p9--11--9--12--11--9--
G|--11/12------12/13---------6--6-----10------------------12--------------------------------
D|----------------------------------------------------12------------------------------------
A|----------------------------------------------5-------------------------------------------
E|------------------------------------------------------------------------------------------

Stave 11:

E|--15/16-------------------------------------------------------------------------------------------------
B|------------9--7--7--6--6--4--4-------------------------------------------------9--6--------------------
G|---------------------------------6--6-----3-------------------------------6--8--------8--7--------------
D|---------------------------------------------4p3-----------------------6--------------------9--8--6--4--
A|---------6----------------------------------------6--5--3--4--------------------------------------------
E|--------------------------------------------------------------4-----------------------------------------

http://www.guitartabcreator.com
Guitar Tab Creator is intended to store guitar tab created through the tool. It currently does not support in-line text editing. Any text you place in here will be lost. If you need to comment on your tab, please use the "Tab Notes" section located below.