Sound will begin in 5 seconds

here comes sunshine 12/19/73 solo 3- 11:24

01234567891011121314151617181920212223
E
B
G
D
A
E
B
0 1 2 3 4 5 6 7 8 9 10 11 12 13 14 15 16 17 18 19 20 21 22 23
Song Science #1: How Pros Use 6 Chords to Write Hit Songs
(/) Slide Up  (\) Slide Down  (h) Hammer On  (p) Pull Off  (b) Bend (r) Release (v) Vibrato

Stave 1:

E|-------------------------------------------------------------------------------------------
B|-------------------------------------------------------------------------------------------
G|-------------------------------------------------------------------------------------------
D|-------3h5p3-----3-------3h5p3h5-----------------------------------------------------------
A|--4h5---------5-----4h5--------------4/5--3--1------------1-------------------1b2----------
E|------------------------------------------------3--3p2h3-----3p2h3-----3p2h3----------3p2--

Stave 2:

E|------------------------------------------------------------------------------------------------
B|------------------------------------------------------------------------------------------------
G|------------------------------------------------------------------4--5/7--4--4--5p4-----4--5/7--
D|----------------------------------------------3-------3h5p3--4/5---------------------5----------
A|-------------------1---------1--------1--3/5-----4h5--------------------------------------------
E|--3p2h3-----3p2h3-----3p2h3-----3--3------------------------------------------------------------

Stave 3:

E|-------------------------------------------------------------------------------------------
B|--5--6p5--8p6h8--7/8--6----------6--8--8b10r8--6--8-----8--6---------6---------6-----6--8--
G|-------------------------7--6h7-------------------------------7p6h7-----7p6h7-----7--------
D|-------------------------------------------------------------------------------------------
A|-------------------------------------------------------------------------------------------
E|-------------------------------------------------------------------------------------------

Stave 4:

E|---------------------------------------------------------------------------------------------
B|--8b10r8p6--8--10--9--8--8--8--6-----6--8-----10b12--12--12r10--8------8--10--10--8--10--10--
G|----------------------------------7--------------------------------10------------------------
D|---------------------------------------------------------------------------------------------
A|---------------------------------------------------------------------------------------------
E|---------------------------------------------------------------------------------------------

Stave 5:

E|--7----------------------------------------------------------------------------------------
B|-----10b12--12r10--8--------10--10-----10--8--6-----8-----8--8p7p6-----6--6-------6--8-----
G|----------------------9--7-----------------------7------------------7--------6h7--------7--
D|-------------------------------------------------------------------------------------------
A|-------------------------------------------------------------------------------------------
E|-------------------------------------------------------------------------------------------

Stave 6:

E|------------------------------------------------------------------------13--15--15--
B|--8--10--8--10--12--12b14r12--10------10---------13--15-----13--14--15--------------
G|----------------------------------12------12/14-------------------------------------
D|------------------------------------------------------------------------------------
A|------------------------------------------------------------------------------------
E|------------------------------------------------------------------------------------

Stave 7:

E|--13---------13h15p13h15--15--13-------------15p13h15--13h15--13-------------13------13h15--
B|------14h15-----------------------13h15--15-----------------------14h15--15------15---------
G|--------------------------------------------------------------------------------------------
D|--------------------------------------------------------------------------------------------
A|--------------------------------------------------------------------------------------------
E|--------------------------------------------------------------------------------------------

Stave 8:

E|--15b16r15--13------------13---------13--15p14p13--15--15v--13---------13--15--15p14p13--15--
B|----------------15p14h15------14h15-----------------------------14h15------------------------
G|---------------------------------------------------------------------------------------------
D|---------------------------------------------------------------------------------------------
A|---------------------------------------------------------------------------------------------
E|---------------------------------------------------------------------------------------------

Stave 9:

E|--15--13----------13--15p14p13--15--15--13----------13--15p13--15--15b17r15--13--15--15b17r15--
B|----------15--15----------------------------15--15---------------------------------------------
G|-----------------------------------------------------------------------------------------------
D|-----------------------------------------------------------------------------------------------
A|-----------------------------------------------------------------------------------------------
E|-----------------------------------------------------------------------------------------------

Stave 10:

E|--15--17b19r17--15h17--17--16b18--15---------15--17--15--17--17--17b19r17--15------15--15----------
B|--------------------------------------16h17------------------------------------18----------18--15--
G|---------------------------------------------------------------------------------------------------
D|---------------------------------------------------------------------------------------------------
A|---------------------------------------------------------------------------------------------------
E|---------------------------------------------------------------------------------------------------

Stave 11:

E|-------------------------------------------------
B|--15-----------------------18p17--15--18p17--15--
G|------17--15/16----------------------------------
D|-----------------17------------------------------
A|-------------------------------------------------
E|-------------------------------------------------

http://www.guitartabcreator.com
Guitar Tab Creator is intended to store guitar tab created through the tool. It currently does not support in-line text editing. Any text you place in here will be lost. If you need to comment on your tab, please use the "Tab Notes" section located below.