Sound will begin in 5 seconds

here comes sunshine 12/19/73 solo 2 -part 3

01234567891011121314151617181920212223
E
B
G
D
A
E
B
0 1 2 3 4 5 6 7 8 9 10 11 12 13 14 15 16 17 18 19 20 21 22 23
Song Science #1: How Pros Use 6 Chords to Write Hit Songs
(/) Slide Up  (\) Slide Down  (h) Hammer On  (p) Pull Off  (b) Bend (r) Release (v) Vibrato

Stave 1:

E|------------------------------------------------------------------------------------
B|----------------------------------------12------------------------------------------
G|--------------12--12\10-------------10----------------12------12--14--14b16r14--12--
D|--14--12--14-------------12--10/12-------------12/14------14------------------------
A|------------------------------------------------------------------------------------
E|------------------------------------------------------------------------------------

Stave 2:

E|---------------------------------------------------------------------------------------------
B|------12---------------------------------------------------------------------------------12--
G|--14------14p12------12--12---------12--12------12--12--14--12--14b16r14--12---------10------
D|-----------------14-------------14----------14--------------------------------14\12----------
A|---------------------------------------------------------------------------------------------
E|---------------------------------------------------------------------------------------------

Stave 3:

E|-------------------------------------------------------------------------------------------------
B|--------------------------------------15---------------------------------------------------------
G|---------12--14--14b16r14--12--14b16------16--16r14--12----------12--12------12--12------12--12--
D|--12h14--------------------------------------------------14--12----------14----------14----------
A|-------------------------------------------------------------------------------------------------
E|-------------------------------------------------------------------------------------------------

Stave 4:

E|-----------------------------------------------------------------------------------------------13--
B|---------------------------12--------------------------------------12--13------12--13--14--15------
G|--14b16r14--12---------10----------------12--14--14b16r14--12--14----------14----------------------
D|----------------14\12-------------12/14------------------------------------------------------------
A|---------------------------------------------------------------------------------------------------
E|---------------------------------------------------------------------------------------------------

Stave 5:

E|---------------------------------------------------------------------------------------------------12--
B|------12-----------------------------------------------------------------------12------12--13--15------
G|----------12p10--12p10h12--14--14b16r14--12----------------------------12--14------14------------------
D|--12-----------------------------------------14--12--12-----12--12/14----------------------------------
A|-------------------------------------------------------------------------------------------------------
E|-------------------------------------------------------------------------------------------------------

Stave 6:

E|----------12------12--13--15p13p12h13-----12---------------------15--17b19r17--15--17b19--
B|--13--15------15------------------------------15--15--15--15/17---------------------------
G|------------------------------------------------------------------------------------------
D|------------------------------------------------------------------------------------------
A|------------------------------------------------------------------------------------------
E|------------------------------------------------------------------------------------------

Stave 7:

E|--15---------15--17--17b19r17--15h17--16--17-----15---------15--19--18--17-----17--16--15------15--15--
B|------16h17------------------------------------------16h17---------------------------------17----------
G|-------------------------------------------------------------------------------------------------------
D|-------------------------------------------------------------------------------------------------------
A|-------------------------------------------------------------------------------------------------------
E|-------------------------------------------------------------------------------------------------------

Stave 8:

E|----------------------------------13--15--14--13---------13-------------------
B|--18p17p16p15--15-----13--14--15------------------14h15------15p14p13p12--12--
G|------------------------------------------------------------------------------
D|------------------------------------------------------------------------------
A|------------------------------------------------------------------------------
E|------------------------------------------------------------------------------

Stave 9:

E|---------------------------------------------------13--12---------------------------
B|--------------------------------15--------------------------------------------------
G|--14--12--14--14b16--12--14b16------16--16r14--12----------14b16--16--16r14--12h14--
D|------------------------------------------------------------------------------------
A|------------------------------------------------------------------------------------
E|------------------------------------------------------------------------------------

Stave 10:

E|----------------------------------------
B|----------------------------------------
G|--12--14b16r14--12------12--12----------
D|--------------------14----------14--12--
A|----------------------------------------
E|----------------------------------------

http://www.guitartabcreator.com
Guitar Tab Creator is intended to store guitar tab created through the tool. It currently does not support in-line text editing. Any text you place in here will be lost. If you need to comment on your tab, please use the "Tab Notes" section located below.