Sound will begin in 5 seconds

here comes sunshine 12/19/73 solo 2 -part 2 starts at 7:42

01234567891011121314151617181920212223
E
B
G
D
A
E
B
0 1 2 3 4 5 6 7 8 9 10 11 12 13 14 15 16 17 18 19 20 21 22 23
Song Science #1: How Pros Use 6 Chords to Write Hit Songs
(/) Slide Up  (\) Slide Down  (h) Hammer On  (p) Pull Off  (b) Bend (r) Release (v) Vibrato

Stave 1:

E|---------------------------------------------------------------12----------15p13p12h13--
B|----------------------------------------------------12--13h15------13--15---------------
G|-----------------------12--14b16r14--12--14p12------------------------------------------
D|----------12h14p12h14---------------------------12--------------------------------------
A|--12--14--------------------------------------------------------------------------------
E|----------------------------------------------------------------------------------------

Stave 2:

E|--13--12----------12---------12--13--12--12--13------12--13------12--13p12------13--13p12------
B|----------15--13------13/15----------------------13----------15-------------15-------------15--
G|-----------------------------------------------------------------------------------------------
D|-----------------------------------------------------------------------------------------------
A|-----------------------------------------------------------------------------------------------
E|-----------------------------------------------------------------------------------------------

Stave 3:

E|--13--13p12------12--15--15---------13--13--13---------15--15--15--------------13--13--13--
B|-------------15-----------------15-----------------15--------------12--13--15--------------
G|-------------------------------------------------------------------------------------------
D|-------------------------------------------------------------------------------------------
A|-------------------------------------------------------------------------------------------
E|-------------------------------------------------------------------------------------------

Stave 4:

E|--------------15------15--------------13------13-----13----------------------------------
B|--12--13--15------15------12--13--15------15-------------15--17\15--13--12--15p13p12h13--
G|-----------------------------------------------------------------------------------------
D|-----------------------------------------------------------------------------------------
A|-----------------------------------------------------------------------------------------
E|-----------------------------------------------------------------------------------------

Stave 5:

E|--
B|--
G|--
D|--
A|--
E|--

Stave 6:

E|----------------------------------------------------------
B|------12--------------------------------------------------
G|--14------14p12h14--14b16r14--12----------12--12--12--12--
D|----------------------------------14--12------------------
A|----------------------------------------------------------
E|----------------------------------------------------------

http://www.guitartabcreator.com
Guitar Tab Creator is intended to store guitar tab created through the tool. It currently does not support in-line text editing. Any text you place in here will be lost. If you need to comment on your tab, please use the "Tab Notes" section located below.