Sound will begin in 5 seconds

here comes sunshine 12/19/73 solo 2 -6:47

01234567891011121314151617181920212223
E
B
G
D
A
E
B
0 1 2 3 4 5 6 7 8 9 10 11 12 13 14 15 16 17 18 19 20 21 22 23
Song Science #1: How Pros Use 6 Chords to Write Hit Songs
(/) Slide Up  (\) Slide Down  (h) Hammer On  (p) Pull Off  (b) Bend (r) Release (v) Vibrato

Stave 1:

E|--------------------------------------------------------------------------------------------------
B|--11/12--12---------------------------------------------------------------------------------------
G|-------------14p12------12------14/16--12--14--12--------------12------12--16\14--12------12------
D|--------------------14------14---------------------14--12--14------14-----------------14------14--
A|--------------------------------------------------------------------------------------------------
E|--------------------------------------------------------------------------------------------------

Stave 2:

E|-------------------------------------------------------13---------13--15p13--15b17--13---------13--
B|-----------------13b15r13--12----------12--13--14--15------14h15------------------------14h15------
G|--16\14--12--------------------12--14--------------------------------------------------------------
D|-------------14------------------------------------------------------------------------------------
A|---------------------------------------------------------------------------------------------------
E|---------------------------------------------------------------------------------------------------

Stave 3:

E|--15p13h15--15b17--16r14--13------13--13----------------------------------------------------------
B|------------------------------15----------15p13h15--12b13--14r12--10------12--10------------------
G|----------------------------------------------------------------------12----------12--10--12--14--
D|--------------------------------------------------------------------------------------------------
A|--------------------------------------------------------------------------------------------------
E|--------------------------------------------------------------------------------------------------

Stave 4:

E|-------------------------------------------------------------------------------------------------------
B|-----------------12------------------------------------------------------------------------------------
G|--16\14--12--14------12----------------12--------------------------------------------------------------
D|----------------------------14--13h14-------------12--14p12---------12---------------------------------
A|-------------------------------------------13/14-------------13h14------13--12--12--13\12--10------10--
E|-----------------------------------------------------------------------------------------------12------

Stave 5:

E|----------------------------------------------------------------------------------------------------
B|----------------------------------------------------------------------------------------------------
G|----------------------------------------------------------------------------------------------------
D|---------------------------------------------------------------------------------12---------12--14--
A|--12/13--12--10------10--10-----10--10--10-----10---------10--12------10--12/14------13h14----------
E|-----------------12--------------------------------11h12----------12--------------------------------

Stave 6:

E|-------------------------------------------------13\12---------------------------------------
B|--------------------------------------------------------15b17--15--13----------15--17b19r17--
G|--12---------12--14b16r14--12------12--14p12h14------------------------14--16----------------
D|------14p12--------------------14------------------------------------------------------------
A|---------------------------------------------------------------------------------------------
E|---------------------------------------------------------------------------------------------

Stave 7:

E|--------------15--17--17b19r17--15--17--17b19--15---------15h17p15--17b19--19r17--15------15--17--17--
B|--15--16--17---------------------------------------16h17------------------------------17--------------
G|------------------------------------------------------------------------------------------------------
D|------------------------------------------------------------------------------------------------------
A|------------------------------------------------------------------------------------------------------
E|------------------------------------------------------------------------------------------------------

Stave 8:

E|--17v--15------15--17--17b19r17--15--17------15--15------15-----17b19--19r17--15--17--17v--
B|-----------17----------------------------17----------17------------------------------------
G|-------------------------------------------------------------------------------------------
D|-------------------------------------------------------------------------------------------
A|-------------------------------------------------------------------------------------------
E|-------------------------------------------------------------------------------------------

Stave 9:

E|--15------15--15--17b19-----19r17--15------15--15------------15-----17b19--15--19r17--15------15--15--
B|------17-------------------------------17----------17p16h17-------------------------------17----------
G|------------------------------------------------------------------------------------------------------
D|------------------------------------------------------------------------------------------------------
A|------------------------------------------------------------------------------------------------------
E|------------------------------------------------------------------------------------------------------

Stave 10:

E|------15--15--17--17b18--15------15--17--17b19r17--15--17--15------15--15-------------------
B|--17-------------------------17--------------------------------17----------17--15--15--17v--
G|--------------------------------------------------------------------------------------------
D|--------------------------------------------------------------------------------------------
A|--------------------------------------------------------------------------------------------
E|--------------------------------------------------------------------------------------------

Stave 11:

E|------------------------------------------------------------------------------------
B|--11b13r11---------------------------------12---------------------------------------
G|------------12--10------------------------------------12--12--14b16r14--12------12--
D|--------------------12--10--12/14--12--12------12h14------------------------14------
A|------------------------------------------------------------------------------------
E|------------------------------------------------------------------------------------

Stave 12:

E|------10--10------10--12--13--12------12--13\12--10------10--12--10--13p12--10------12--10----------
B|--13----------13-------------------------------------13-------------------------13----------13--12--
G|----------------------------------12----------------------------------------------------------------
D|----------------------------------------------------------------------------------------------------
A|----------------------------------------------------------------------------------------------------
E|----------------------------------------------------------------------------------------------------

Stave 13:

E|---------------------------------------------------------------------------------------------------
B|--15p13p12------13--12----------12-----------------------------------------------------------------
G|------------12----------14--12------14----------12--14--16r14--12--14------12--12------------------
D|----------------------------------------14--14-------------------------14----------14--12------12--
A|-------------------------------------------------------------------------------------------14------
E|---------------------------------------------------------------------------------------------------

Stave 14:

E|--
B|--
G|--
D|--
A|--
E|--

http://www.guitartabcreator.com
Guitar Tab Creator is intended to store guitar tab created through the tool. It currently does not support in-line text editing. Any text you place in here will be lost. If you need to comment on your tab, please use the "Tab Notes" section located below.