Sound will begin in 5 seconds

Help on the way 5/9/77 solo starts at 2:57

01234567891011121314151617181920212223
E
B
G
D
A
E
B
0 1 2 3 4 5 6 7 8 9 10 11 12 13 14 15 16 17 18 19 20 21 22 23
Song Science #1: How Pros Use 6 Chords to Write Hit Songs
(/) Slide Up  (\) Slide Down  (h) Hammer On  (p) Pull Off  (b) Bend (r) Release (v) Vibrato

Stave 1:

E|-------------------------------------------------------------------------------------------
B|----------------------8h9p8--------------------------------------11--9p8------8------------
G|--10p8------------10---------10--8--8--------8----------------------------10-----10p8------
D|--------9h10--10-----------------------9h10-----10------8h10---------------------------10--
A|----------------------------------------------------10-------------------------------------
E|-------------------------------------------------------------------------------------------

Stave 2:

E|-------------------------------------------------------------------------------------------
B|-------------------------------------------------------------------------------------------
G|--8--------8-------------------------------------------------------------------------------
D|-----9h10-----10--9--8------8--------------------------------------------------------------
A|------------------------11-----11p10p9p8--6-----6--8--6-----6--7--8--8--6h8p6-----6--------
E|---------------------------------------------8-----------8---------------------8-----8--8--

Stave 3:

E|-------------------------------------------------------------------------------------------
B|-------------------------------------------------------------------------------------------
G|--10p8--10--8------8--------------------------------------10--10--10--10--10--8------8h10--
D|---------------10-----10--8------8-----------8-----8-----------------------------10--------
A|-----------------------------10-----8--9h10-----------10-----------------------------------
E|-------------------------------------------------------------------------------------------

Stave 4:

E|--------------13-------------------------13-------------------------------------15--15--15--13------
B|----------13------16--15--12/13--15--16------16--15--12h13--15--13--16--15--13------------------16--
G|------13--------------------------------------------------------------------------------------------
D|--15------------------------------------------------------------------------------------------------
A|----------------------------------------------------------------------------------------------------
E|----------------------------------------------------------------------------------------------------

Stave 5:

E|----------13--11--13--15-----16--15----------15-----13------------------------------
B|--13--13-----------------------------18--16-------------16--13------16--13----------
G|----------------------------------------------------------------13----------15--13--
D|------------------------------------------------------------------------------------
A|------------------------------------------------------------------------------------
E|------------------------------------------------------------------------------------

Stave 6:

E|----------------------11-------------------------------------------------------------
B|--------------------------13p12p11------11-------------------------------------------
G|--10------10--12--10----------------12------12--11--10--8------8--------8------8/10--
D|------12---------------------------------------------------10-----9h10-----10--------
A|-------------------------------------------------------------------------------------
E|-------------------------------------------------------------------------------------

Stave 7:

E|---------------------------------------------------------------------------------------------------
B|--------------------------------------------------------------9------9--11p9h11--11--13--12--11/9--
G|--10--8------8h10------8------8/10--------8---------10p8---------10--------------------------------
D|---------10--------10-----10--------9h10-----10-----------10---------------------------------------
A|---------------------------------------------------------------------------------------------------
E|---------------------------------------------------------------------------------------------------

Stave 8:

E|------------------------------------------------------------------------------------------------
B|--11/13--13--12--11--11-------------------------------------------------------------------------
G|-------------------------12--10--8------------8------8------8/10------------8--10--8------8--7--
D|------------------------------------10-----------10-----10--------8--9--10------------10--------
A|------------------------------------------------------------------------------------------------
E|------------------------------------------------------------------------------------------------

Stave 9:

E|-----------------------------------11--11------10h11p10------10---------15--18--15----------------------
B|----------------------9--9--11/13----------13------------13------13\16--------------18--16--18--16------
G|------------8--9--10--------------------------------------------------------------------------------17--
D|--8--9--10----------------------------------------------------------------------------------------------
A|--------------------------------------------------------------------------------------------------------
E|--------------------------------------------------------------------------------------------------------

Stave 10:

E|---------------------------------------------------------------------------------------------
B|--15h16p15-----------------------------------------------------------------------------------
G|------------17--15--15-----------------------------------------------------------------------
D|------------------------17\15--13---------13h15p13------13h15p13------13--15--13------13h15--
A|-----------------------------------14h15------------15------------15--------------15---------
E|---------------------------------------------------------------------------------------------

Stave 11:

E|--------------13--------------------------13------------------------------------------------
B|----------13------16--15------13--15--16------16--15-----15------13--15--15--16p15--15--13--
G|------13------------------15---------------------------------15-----------------------------
D|--15----------------------------------------------------------------------------------------
A|--------------------------------------------------------------------------------------------
E|--------------------------------------------------------------------------------------------

Stave 12:

E|--15--15--15--13--11--11--11--13--13b15r13--13--11------11h13p11------11------15--15p13--13--11/13--
B|----------------------------------------------------13------------13------13------------------------
G|----------------------------------------------------------------------------------------------------
D|----------------------------------------------------------------------------------------------------
A|----------------------------------------------------------------------------------------------------
E|----------------------------------------------------------------------------------------------------

Stave 13:

E|--13--------------------------------------------------------------------------------------------------
B|------16--13------------------------------------------------------------------------------------------
G|--------------15p13------13--15b17--17--16--15--13----------------------------------------------------
D|---------------------15-----------------------------15--13----------------------15p13------13------13h
A|------------------------------------------------------------15--14--13-----------------15------15-----
E|------------------------------------------------------------------------16--13------------------------

http://www.guitartabcreator.com
Guitar Tab Creator is intended to store guitar tab created through the tool. It currently does not support in-line text editing. Any text you place in here will be lost. If you need to comment on your tab, please use the "Tab Notes" section located below.