Sound will begin in 5 seconds

Hard to Handle july 31 1971 yale bowl

01234567891011121314151617181920212223
E
B
G
D
A
E
B
0 1 2 3 4 5 6 7 8 9 10 11 12 13 14 15 16 17 18 19 20 21 22 23
Song Science #1: How Pros Use 6 Chords to Write Hit Songs
(/) Slide Up  (\) Slide Down  (h) Hammer On  (p) Pull Off  (b) Bend (r) Release (v) Vibrato

Stave 1:

E|-----------------7------------------------------------------------------------------------------
B|-----------------------10b12--7-----------------------------------------------------------------
G|-------7/8--7/8------------------9--7-----7h9p7-----7b8--7b8----------------------7h8-----------
D|--7/9----------------------------------9---------9------------9--6/7--------7--9-------9-----7--
A|----------------------------------------------------------------------7--9----------------9-----
E|------------------------------------------------------------------------------------------------

Stave 2:

E|------------------------------------------------------------------------------------------------------
B|---------------------------------------------------------------------------------------------------7--
G|--9--------------------------------------------------------------------7b8--------9p7--9-----9b11-----
D|--------7--9--7-------------------------------5-------7-------9--9--9-------9--7----------9-----------
A|-----9-----------9--9/7--5-----------------6-----7/9-----8h9------------------------------------------
E|----------------------------7--7-----7--7-------------------------------------------------------------

Stave 3:

E|-----------------------------------------------------------------------------------------------------
B|-----10-----7--7-------------------------------------------------------------------------------------
G|--9------9--------9--9-----9--9--7--------------------9b11--9b11--9b11--9-----7--9p7-----------7-----
D|------------------------9-----------7--------------------------------------9----------9--7--------9--
A|---------------------------------------9--7--8--9-------------------------------------------9--------
E|-----------------------------------------------------------------------------------------------------

Stave 4:

E|-------------------------------------------------------------------------------------------------
B|-------------------------------------------------------12------10--12p10------12--10--12p10------
G|------------------7b8-----7--9/10\9--7--9-----7--9/11------11-------------11-----------------11--
D|--9-----7h9p7----------9-------------------9-----------------------------------------------------
A|-----9---------9---------------------------------------------------------------------------------
E|-------------------------------------------------------------------------------------------------

Stave 5:

E|------------------------------------------------------------------------------------------
B|--12------10--12p10------12------10--12b10------12------10--12p10------12------10--12p10--
G|------11-------------11------11-------------11------11-------------11------11-------------
D|------------------------------------------------------------------------------------------
A|------------------------------------------------------------------------------------------
E|------------------------------------------------------------------------------------------

Stave 6:

E|-----------------------------------------------------------------------10--11--12--11--12--
B|--12------10--12p10--10h12--12--10--12p10------12------10--12--11--12----------------------
G|------11-----------------------------------11------11--------------------------------------
D|-------------------------------------------------------------------------------------------
A|-------------------------------------------------------------------------------------------
E|-------------------------------------------------------------------------------------------

Stave 7:

E|--12b14r12--10b11--12------10--12b14r12--12--10h12p10------10--------------------------------------
B|-----------------------12------------------------------12------12--10------12------10h12p10--------
G|-----------------------------------------------------------------------11------11------------11\9--
D|---------------------------------------------------------------------------------------------------
A|---------------------------------------------------------------------------------------------------
E|---------------------------------------------------------------------------------------------------

Stave 8:

E|------------------------------------------------------------------------------------------------
B|-------------------------------------------------------------------------12--12--12--12--12p10--
G|--11\9--7--9-----7--9b11--9b11--9b11--7--9-----7h9p7-----------7--------------------------------
D|--------------9-----------------------------9---------9--7--------9-----------------------------
A|------------------------------------------------------------9--------9v-------------------------
E|------------------------------------------------------------------------------------------------

Stave 9:

E|--
B|--
G|--
D|--
A|--
E|--

http://www.guitartabcreator.com
Guitar Tab Creator is intended to store guitar tab created through the tool. It currently does not support in-line text editing. Any text you place in here will be lost. If you need to comment on your tab, please use the "Tab Notes" section located below.