Sound will begin in 5 seconds

grateful guitar licks

01234567891011121314151617181920212223
E
B
G
D
A
E
B
0 1 2 3 4 5 6 7 8 9 10 11 12 13 14 15 16 17 18 19 20 21 22 23
Song Science #1: How Pros Use 6 Chords to Write Hit Songs
(/) Slide Up  (\) Slide Down  (h) Hammer On  (p) Pull Off  (b) Bend (r) Release (v) Vibrato

Stave 1:

E|--16p15p14/12--14p13p12------12-----------------------------------------------------------------
B|-------------------------14------14p12------14--12----------12----------12--------------12--12--
G|----------------------------------------13----------13--13------13----------13------------------
D|--------------------------------------------------------------------14----------14--12----------
A|------------------------------------------------------------------------------------------------
E|------------------------------------------------------------------------------------------------

Stave 2:

E|--------------------------------------------------------
B|---------14--14------14------14b15--14--12--------------
G|--------------------------------------------14--12--13--
D|--12/14----------14------14-----------------------------
A|--------------------------------------------------------
E|--------------------------------------------------------

Stave 3:

E|---------16----------14---------12----------10--
B|------------------------------------------------
G|--13/16------14--14------12/13------13--12------
D|------------------------------------------------
A|------------------------------------------------
E|------------------------------------------------

Stave 4:

E|-----------------------------------------------------------------------------------------
B|--10p9------9----------------------------------------------------------------------------
G|--------11-----11p9--9-------------------------------------------------------9-----------
D|------------------------11p9------11------11-----------------12p11p9---------------------
A|------------------------------11------11------------------------------10h11-----11\9--7--
E|-----------------------------------------------------------------------------------------

Stave 5:

E|--------------14/16--15--14--12---------12--15p14p12---------12--15r14--12------12--12--
B|------12-------------------------13h14----------------13h14-----------------14----------
G|--13------13----------------------------------------------------------------------------
D|----------------------------------------------------------------------------------------
A|----------------------------------------------------------------------------------------
E|----------------------------------------------------------------------------------------

Stave 6:

E|--12-------------------------------------------
B|------15p14p12------12-------------------------
G|----------------13------13\11--12p11p9------9--
D|----------------------------------------11-----
A|-----------------------------------------------
E|-----------------------------------------------

Stave 7:

E|-------------------------------------------------------
B|-------------10----------------------------------------
G|---------------------------------------9--11p10p9------
D|--10h11--11-----------------9--10--11--------------11--
A|-----------------12--11h12-----------------------------
E|-------------------------------------------------------

Stave 8:

E|-------------------------------------------19--19---------------19--18--17------16--17--16------
B|---------17------20r19--17------17--19b21----------20r19--------------------19--------------19--
G|--17/18------18-------------18------------------------------------------------------------------
D|------------------------------------------------------------------------------------------------
A|------------------------------------------------------------------------------------------------
E|------------------------------------------------------------------------------------------------

Stave 9:

E|-------------------------------------------------------------------------------------
B|--16h17--17-----------------------------------17------17--17-------------------------
G|-------------19p18p17---------16--18--17--18------16----------19--18--16---------16--
D|-----------------------17h18----------------------------------------------17h18------
A|-------------------------------------------------------------------------------------
E|-------------------------------------------------------------------------------------

Stave 10:

E|-------------------------------------
B|-------------------------------------
G|-------------------------------------
D|--18\16--14----------14----------14--
A|-------------16--14------14--16------
E|-------------------------------------

Stave 11:

E|---------------------------------------------
B|------------------------------10-------------
G|---------9--11b13--11--9----------11--9------
D|--9--11-------------------11-------------11--
A|---------------------------------------------
E|---------------------------------------------

Stave 12:

E|--15p14p12------12--------------------------------------------------------------------
B|------------14------14p12------12-----------------------------------------------------
G|---------------------------13------13\11--11b13--11--9------9------------9------------
D|--------------------------------------------------------11-----11p9---------11p9------
A|---------------------------------------------------------------------11-----------11--
E|--------------------------------------------------------------------------------------

Stave 13:

E|----------------------------------------------------------------------
B|----------------------------------------------------------------------
G|----------------------------------9-----------------------------------
D|--11------9--------------------------11p9------11------9--------------
A|------11-----11\9--10r9--7--9/11-----------11------11-----11\9--7-----
E|-------------------------------------------------------------------9--

Stave 14:

E|--11--12--14p13p12p11\10h11------------9--7-------7---------------
B|-----------------------------12--------------8b9-----8b9--8b9-----
G|---------------------------------11\9--------------------------9--
D|------------------------------------------------------------------
A|------------------------------------------------------------------
E|------------------------------------------------------------------

Stave 15:

E|--------11--9--------------------------------------
B|--------------------7------------------------9-----
G|--9/11---------7h8-----------8------------------9--
D|-----------------------9--------7\6-----7/9--------
A|--------------------------9----------7-------------
E|---------------------------------------------------

Stave 16:

E|--17r16--14--14----------16--14------------------------------12--12--------------------
B|-----------------15--16----------16--15--14--12--14------------------14b15--12--14/16--
G|-----------------------------------------------------12--13----------------------------
D|---------------------------------------------------------------------------------------
A|---------------------------------------------------------------------------------------
E|---------------------------------------------------------------------------------------

Stave 17:

E|--14--16--14---------14--16--14--
B|--------------15b16--------------
G|---------------------------------
D|---------------------------------
A|---------------------------------
E|---------------------------------

Stave 18:

E|--16------14--12---------14--16--14-----------------------------------
B|------------------14/16--------------15b16-------------16--16\14--12--
G|------14------------------------------------16------------------------
D|------------------------------------------------14/16-----------------
A|----------------------------------------------------------------------
E|----------------------------------------------------------------------

Stave 19:

E|--------------------------------------------------------------------------------------------------------
B|--11b12--10----------10---------------------------------------------------------------------------------
G|-------------10--12------12--11--10--12--11--10--------------10--12--10--------------10-----------------
D|-------------------------------------------------12--11--12--------------12--11--12------12--11--10--9--
A|--------------------------------------------------------------------------------------------------------
E|--------------------------------------------------------------------------------------------------------

Stave 20:

E|---------------------------------------------------------------------------------------------------
B|--------------------------------------------------------------------------11b12------11b12--11b12--
G|--------------------------------------------------10------10--12--11--12---------12----------------
D|--9------9--10--9--10--11--10--11/12--12--11--12------12-------------------------------------------
A|-----10--------------------------------------------------------------------------------------------
E|---------------------------------------------------------------------------------------------------

Stave 21:

E|---------15----------------------------------------------------------------------------------
B|-------------18--18--17--15--------------15--------------------------------------------------
G|--14/16----------------------17--15--17------17--16--15--17--16--15--------------15--16--15--
D|---------------------------------------------------------------------17--16--17--------------
A|---------------------------------------------------------------------------------------------
E|---------------------------------------------------------------------------------------------

Stave 22:

E|---------------------------------------------------------------------------------
B|---------------------------------------------------------------------------------
G|--------------15-----------------------------------------------------------------
D|--17--16--17------17--16--15--17--16--15--------------15--17--15-----------------
A|------------------------------------------17--16--17--------------17--16\14------
E|-----------------------------------------------------------------------------15--

http://www.guitartabcreator.com
Guitar Tab Creator is intended to store guitar tab created through the tool. It currently does not support in-line text editing. Any text you place in here will be lost. If you need to comment on your tab, please use the "Tab Notes" section located below.