Sound will begin in 5 seconds

good lovin

01234567891011121314151617181920212223
E
B
G
D
A
E
B
0 1 2 3 4 5 6 7 8 9 10 11 12 13 14 15 16 17 18 19 20 21 22 23
Song Science #1: How Pros Use 6 Chords to Write Hit Songs
(/) Slide Up  (\) Slide Down  (h) Hammer On  (p) Pull Off  (b) Bend (r) Release (v) Vibrato

Stave 1:

E|------------------------------------------------------------------------------------------
B|------------------------------------------------------------------------------------------
G|----------------8h9--10--10--8h9----------------------------------------------------------
D|------8--9--10--------------------10----------------------------------8h10--10--8------8--
A|--10----------------------------------10\8--6--8--6h7-----6------------------------10-----
E|-------------------------------------------------------8-----6--8--6----------------------

Stave 2:

E|----------12------------------------------12----------------------------------------
B|------11------------------------------11------------------------------11---------8--
G|--12----------10--8h9-------------12----------10--8h9--------------9----------9-----
D|-----------------------10--8--10-----------------------10--10--10---------10--------
A|------------------------------------------------------------------------------------
E|------------------------------------------------------------------------------------

Stave 3:

E|--------------------------------12-----------------------------------12---------------------------------
B|-------8------8-------------11-------------11--------------------11-------------------------------------
G|--8h9-----10-----8------12----------10b12------12r10--9------12----------11r10--8------8----------------
D|--------------------10-----------------------------------10------------------------10-----10--8--9--10--
A|--------------------------------------------------------------------------------------------------------
E|--------------------------------------------------------------------------------------------------------

Stave 4:

E|----------12----------------------------------------12-----------------------------------12--
B|------11----------------------------------------11-----------------------------------11------
G|--12----------10b12r12p10------10--8h9------12----------10b12--10--8-------------12----------
D|---------------------------12-----------10----------------------------10--8--10--------------
A|---------------------------------------------------------------------------------------------
E|---------------------------------------------------------------------------------------------

Stave 5:

E|-----------------------------------------------------------------------------------------------
B|----------------------------------------11--8--------------------------------------------------
G|---------------------------------10b12---------10--8--8--10--10b12r10--8--10------8--9--9------
D|--10------8--9--10--8--9--10--------------------------------------------------10-----------10--
A|------10---------------------------------------------------------------------------------------
E|-----------------------------------------------------------------------------------------------

Stave 6:

E|-------------------------------------------------------------------------------------------------
B|----------------------------------------------------------------11-------------------------------
G|----------------------------------------------10------8--10b12------12--12--12r10--8-------------
D|------8--10p8------------8------8--10--9--10------10----------------------------------10--8--10--
A|--10-----------8--9--10-----10-------------------------------------------------------------------
E|-------------------------------------------------------------------------------------------------

Stave 7:

E|-----------------------------------------------------------------------------------------------
B|-----------------------------------------------------------------------------------------------
G|--8------8--10--10b12r10--8--10--8-------------------------------8b9------8b9--8b9-------------
D|-----10-----------------------------10--8------10--8------8--10-------10------------10--8------
A|-------------------------------------------10---------10-----------------------------------10--
E|-----------------------------------------------------------------------------------------------

Stave 8:

E|------------------------------------------------------------------------------------------------------
B|------------------------------------------------------------------------------------------------------
G|----------------------------------------------------------------------------------8b9------10------8--
D|--10p8------8--10p8------10------8h10p8------8--8----------------8b9--10--10--10-------10------10-----
A|--------10-----------10------10----------10--------10--8--9--10---------------------------------------
E|------------------------------------------------------------------------------------------------------

Stave 9:

E|-------------------------------------------------------------11-------------------------------------
B|---------11-------------8----------------------------------------13--13v--15r13--11------13p11------
G|--10b12------10--10b12-----12r10--8------10p8------8--10/12--------------------------12---------12--
D|-------------------------------------10--------10---------------------------------------------------
A|----------------------------------------------------------------------------------------------------
E|----------------------------------------------------------------------------------------------------

Stave 10:

E|------------------------------------------------------------------------------------------------
B|--11--13--13b15r13p11--13------13b15--13b15r13--11------13------11h13p11------13\11--11--12b13--
G|---------------------------12-----------------------12------12------------12--------------------
D|------------------------------------------------------------------------------------------------
A|------------------------------------------------------------------------------------------------
E|------------------------------------------------------------------------------------------------

Stave 11:

E|--------------------------------------------11b13r11----------------------------------------
B|--13r12--11------13------11--13p11--13--13------------13--13p11------13------11--13--13b15--
G|-------------12------12------------------------------------------12------12-----------------
D|--------------------------------------------------------------------------------------------
A|--------------------------------------------------------------------------------------------
E|--------------------------------------------------------------------------------------------

Stave 12:

E|------------------------------------18------------------------------------------------------------------
B|---------16------18------16--18b20------18b20r18--16------18------16--17b18r17--16------18------16--18--
G|--12/17------17------17-------------------------------17------17--------------------17------17----------
D|--------------------------------------------------------------------------------------------------------
A|--------------------------------------------------------------------------------------------------------
E|--------------------------------------------------------------------------------------------------------

Stave 13:

E|-----------------------18---------18--18---------------------------------18----------------------
B|--18b20--18b20--18b20------18b20----------20r18--16--18------18------16------16------18--16------
G|---------------------------------------------------------17------17--------------17----------17--
D|-------------------------------------------------------------------------------------------------
A|-------------------------------------------------------------------------------------------------
E|-------------------------------------------------------------------------------------------------

Stave 14:

E|--------------
B|--16------16--
G|------17------
D|--------------
A|--------------
E|--------------

http://www.guitartabcreator.com
Guitar Tab Creator is intended to store guitar tab created through the tool. It currently does not support in-line text editing. Any text you place in here will be lost. If you need to comment on your tab, please use the "Tab Notes" section located below.