Sound will begin in 5 seconds

GDTRFB 4 26 72 solo 2

01234567891011121314151617181920212223
E
B
G
D
A
E
B
0 1 2 3 4 5 6 7 8 9 10 11 12 13 14 15 16 17 18 19 20 21 22 23
Song Science #1: How Pros Use 6 Chords to Write Hit Songs
(/) Slide Up  (\) Slide Down  (h) Hammer On  (p) Pull Off  (b) Bend (r) Release (v) Vibrato

Stave 1:

E|--14b16r14--14--12-------------------------------------------------------------------------------------
B|--------------------14p12------12--14p12------12--14b16--------------------------------------------12--
G|---------------------------13-------------13-------------------------------9--11--11b13r11--9--11------
D|------------------------------------------------------------9--10--11--11------------------------------
A|-------------------------------------------------------------------------------------------------------
E|-------------------------------------------------------------------------------------------------------

Stave 2:

E|----------------------9----------------------------------------------------------------------------
B|-------------------------12--9---------9-----------------------------------------------------------
G|--11b13r11--9-------------------11b13-----11b13--11--9--11--13\11--9--11--11--9--11--13\11--9--11--
D|---------------11--9-------------------------------------------------------------------------------
A|---------------------------------------------------------------------------------------------------
E|---------------------------------------------------------------------------------------------------

Stave 3:

E|---------------------------------------------------------------------------------------------
B|---------------------------------------------------------------------------------------------
G|------9------9v-----------9----------------------------------------11b13r11--9---------------
D|--11-----11---------------------------------------------9--10--11---------------11b13r11--9--
A|--------------------9/11-----11\9--7--10\9--7-----9/11---------------------------------------
E|-----------------------------------------------9---------------------------------------------

Stave 4:

E|------------------
B|------------------
G|--11b13r11--9--9--
D|------------------
A|------------------
E|------------------

Stave 5:

E|-----------------------------------------------------------------------------------------
B|------------------12--12------12--12------12--12------12--12------12--12------12--12-----
G|--------9--11/13----------13----------13----------13----------13----------13-------------
D|--9/11-----------------------------------------------------------------------------------
A|-----------------------------------------------------------------------------------------
E|-----------------------------------------------------------------------------------------

Stave 6:

E|-----------------------------------------------12------12--14--14b16r14--12--14--12-------------
B|--12--12------12------12--14b16r14--12--13/14------14--------------------------------14p12------
G|----------13------13------------------------------------------------------------------------13--
D|------------------------------------------------------------------------------------------------
A|------------------------------------------------------------------------------------------------
E|------------------------------------------------------------------------------------------------

Stave 7:

E|---------------------------------------------------------------------------------------------------
B|--12h14--12--12-----7b9r7--5--------5--------------------------------------------------------------
G|------------------------------7--6-----6--4-----4h6------------------------------------------------
D|---------------------------------------------6-------6------------------------9---------9--10--11--
A|--------------------------------------------------------8/9--7-------7--9/11-----9--11-------------
E|----------------------------------------------------------------7h9--------------------------------

Stave 8:

E|------------------------------------------------------------------------------------------------------
B|------------------------------------------------------------------------------9--12--9----------------
G|--9------9--11b13--11--9------9--------------------9--11--11b13r11--9--11b13------------13r11--9--11--
D|-----11-------------------11-----9--11--9--11--11-----------------------------------------------------
A|------------------------------------------------------------------------------------------------------
E|------------------------------------------------------------------------------------------------------

Stave 9:

E|--12--------------------------------------------
B|------------------------------------------------
G|------11b13r11--9---------9---------9-----------
D|-------------------11--9------------------------
A|-----------------------------9--11-----11\9--7--
E|------------------------------------------------

http://www.guitartabcreator.com
Guitar Tab Creator is intended to store guitar tab created through the tool. It currently does not support in-line text editing. Any text you place in here will be lost. If you need to comment on your tab, please use the "Tab Notes" section located below.