Sound will begin in 5 seconds

GDTRFB 4 26 72

01234567891011121314151617181920212223
E
B
G
D
A
E
B
0 1 2 3 4 5 6 7 8 9 10 11 12 13 14 15 16 17 18 19 20 21 22 23
Song Science #1: How Pros Use 6 Chords to Write Hit Songs
(/) Slide Up  (\) Slide Down  (h) Hammer On  (p) Pull Off  (b) Bend (r) Release (v) Vibrato

Stave 1:

E|------------------------------------------------------------------------------
B|--12--12--12--12--12h14-----12--10--9-----------------------------------------
G|---------------------------------------------9--11p9------11b13r11--9------9--
D|------------------------------------------------------11---------------11-----
A|------------------------------------------------------------------------------
E|------------------------------------------------------------------------------

Stave 2:

E|----------------------------------------------------------------------------12----------------------
B|--12b14--14--14r12--10--10--8b10r8--7--5--------12b14r12--12--12b14--12b14--------------------------
G|------------------------------------------6----------------------------------------11b13--11--9--9--
D|----------------------------------------------------------------------------------------------------
A|----------------------------------------------------------------------------------------------------
E|----------------------------------------------------------------------------------------------------

Stave 3:

E|--------------------------------------------------------------------------------------------------------
B|--------------9--10--11--12--12--12--12--12/14--12--12--10--9-----9--10p9-------------------------------
G|--------9h11---------------------------------------------------------------11--9--11--9--7--7--9--7--6--
D|--9h11--------------------------------------------------------------------------------------------------
A|--------------------------------------------------------------------------------------------------------
E|--------------------------------------------------------------------------------------------------------

Stave 4:

E|-----------------------------------------------------------------------9------------------------------
B|---------------------------------------------12b14r12--10--10--10--12-----12b14r12--------------------
G|--6-----6--7--7/9--9--7--11--9--11b13r11--------------------------------------------11--13r11--9------
D|-----7--------------------------------------------------------------------------------------------11--
A|------------------------------------------------------------------------------------------------------
E|------------------------------------------------------------------------------------------------------

Stave 5:

E|-----------------------------------------------------------
B|--17--17b19-----12-----------------------------------------
G|--------------------11b13r11--9----------------------------
D|--------------------------------------------------------2--
A|--------------------------------------------------2--4-----
E|---------------------------------------------2h3-----------

http://www.guitartabcreator.com
Guitar Tab Creator is intended to store guitar tab created through the tool. It currently does not support in-line text editing. Any text you place in here will be lost. If you need to comment on your tab, please use the "Tab Notes" section located below.