Sound will begin in 5 seconds

Franklin's Tower- oct 9 76 solo 2 starting at 4:10

01234567891011121314151617181920212223
E
B
G
D
A
E
B
0 1 2 3 4 5 6 7 8 9 10 11 12 13 14 15 16 17 18 19 20 21 22 23
Song Science #1: How Pros Use 6 Chords to Write Hit Songs
(/) Slide Up  (\) Slide Down  (h) Hammer On  (p) Pull Off  (b) Bend (r) Release (v) Vibrato

Stave 1:

E|---------------------------------------------------------12b14--14--12b14r12--12--12--12--
B|--9/10--12b14--14--14--14r12--12--12--12--12p10------10-----------------------------------
G|-------------------------------------------------11---------------------------------------
D|------------------------------------------------------------------------------------------
A|------------------------------------------------------------------------------------------
E|------------------------------------------------------------------------------------------

Stave 2:

E|---------------------------------------------19b21r19--19--19--17--17----------
B|--12b14--12--10------10--12p10--12b14r12-------------------------------19--19--
G|-----------------11------------------------------------------------------------
D|-------------------------------------------------------------------------------
A|-------------------------------------------------------------------------------
E|-------------------------------------------------------------------------------

Stave 3:

E|----------17--19--20--21--19--19--17--17-------------------------------------------------------
B|--17--19----------------------------------19--19--19p17--17--17--17\15--15--15--15\14--14--14--
G|-----------------------------------------------------------------------------------------------
D|-----------------------------------------------------------------------------------------------
A|-----------------------------------------------------------------------------------------------
E|-----------------------------------------------------------------------------------------------

Stave 4:

E|------------------------------------------------------------------------------------------------------
B|--14--15--16--17--14--------------------------------------------------15------------------------------
G|----------------------16--18\16--14------14h16p14------14---------14----------------------14--15--16--
D|-------------------------------------16------------16------15h16--------------14--15--16--------------
A|--------------------------------------------------------------------------17--------------------------
E|------------------------------------------------------------------------------------------------------

Stave 5:

E|-----------------------------17------14v--15--14----------14------------------------------
B|--14h15------14--15--16--17------17---------------17--15------17--15--14--17--15--14------
G|---------16---------------------------------------------------------------------------16--
D|------------------------------------------------------------------------------------------
A|------------------------------------------------------------------------------------------
E|------------------------------------------------------------------------------------------

Stave 6:

E|--------------------------------------------------------------------------------------------
B|--15--14----------14--------------------------------------------------------14------14--15--
G|----------16--14------16--14------16--15--14------14---------14--16p14----------16----------
D|------------------------------16--------------16------15h16-------------16------------------
A|--------------------------------------------------------------------------------------------
E|--------------------------------------------------------------------------------------------

Stave 7:

E|----------------------------------------------------------------------------------------------
B|--15--15--------------------------------------------------------------------------------------
G|----------16--14----------14------------------------------------------------------------------
D|------------------16--16------16-----14---------14--16--14--14h16p14--------------------------
A|-----------------------------------------15h16------------------------16--14--14--12--12--12--
E|----------------------------------------------------------------------------------------------

Stave 8:

E|---------------------------------------------------------------------------------------------------
B|-------------------------------------------------------------------------------------------15--14--
G|----------------------------------------------------------------14------14--14--14--15/16----------
D|--------------------------14--14--16--16p14--14--14--14--14h16------16-----------------------------
A|--14--14--14--16--16--16---------------------------------------------------------------------------
E|---------------------------------------------------------------------------------------------------

Stave 9:

E|-------------------------------------17------17---------19------19--19b21--21--21--
B|--15--15--17--17--15--15--17--18/19------19------17h19------19---------------------
G|-----------------------------------------------------------------------------------
D|-----------------------------------------------------------------------------------
A|-----------------------------------------------------------------------------------
E|-----------------------------------------------------------------------------------

Stave 10:

E|--19b21--21--21--21--21--21--21--21--21--21--21--21--21--19b21--21--21--21--21r19--19--19--
B|-------------------------------------------------------------------------------------------
G|-------------------------------------------------------------------------------------------
D|-------------------------------------------------------------------------------------------
A|-------------------------------------------------------------------------------------------
E|-------------------------------------------------------------------------------------------

Stave 11:

E|--19b21r19--17------17--17-----19b21r19--17--17------------------------------------------
B|----------------19-------------------------------19--17--19--17----------19--17----------
G|-----------------------------------------------------------------18--------------18------
D|---------------------------------------------------------------------19--------------19--
A|-----------------------------------------------------------------------------------------
E|-----------------------------------------------------------------------------------------

Stave 12:

E|-------------------------------------------------------------------------
B|------------------------15----------14-------------------------------14--
G|--------------------14----------14---------16b18r16--14--14------14------
D|--15/16--15/16--16----------14-------------------------------14----------
A|-------------------------------------------------------------------------
E|-------------------------------------------------------------------------

Stave 13:

E|----------------------------------------------
B|--------2--2h3--5--3--2--------------------3--
G|-----2-------------------2-----4-----2--2-----
D|--2-------------------------5-----4-----------
A|----------------------------------------------
E|----------------------------------------------

http://www.guitartabcreator.com
Guitar Tab Creator is intended to store guitar tab created through the tool. It currently does not support in-line text editing. Any text you place in here will be lost. If you need to comment on your tab, please use the "Tab Notes" section located below.