Sound will begin in 5 seconds

Franklin's Tower- oct 9 76

01234567891011121314151617181920212223
E
B
G
D
A
E
B
0 1 2 3 4 5 6 7 8 9 10 11 12 13 14 15 16 17 18 19 20 21 22 23
Song Science #1: How Pros Use 6 Chords to Write Hit Songs
(/) Slide Up  (\) Slide Down  (h) Hammer On  (p) Pull Off  (b) Bend (r) Release (v) Vibrato

Stave 1:

E|-----------------------------------------------------------------------------------------------
B|--12/14--12--10--------------------------12----------12-------------10--14--15--16--17--13/14--
G|-----------------12--12--11--11------12----------12--------------9-----------------------------
D|---------------------------------12----------12--------------11--------------------------------
A|---------------------------------------------------------12------------------------------------
E|-----------------------------------------------------------------------------------------------

Stave 2:

E|---------------------------------------------------------------------------------------------------17--
B|---------------------------------------------15--14--------------------------------14--15--16--17------
G|--16--15--14------14---------14----------14----------16---------14---------14--16----------------------
D|--------------16------14/16----------16------------------15h16------15h16------------------------------
A|---------------------------------17--------------------------------------------------------------------
E|-------------------------------------------------------------------------------------------------------

Stave 3:

E|------14--16--14-----------------------------------------------------------------------------
B|--17-----------------17--19--20--19--17------19--17----------17------------------------------
G|-----------------------------------------19----------19--18------19--18--16--19--18--16------
D|-----------------------------------------------------------------------------------------19--
A|---------------------------------------------------------------------------------------------
E|---------------------------------------------------------------------------------------------

Stave 4:

E|---------------------------------------------------------------------------
B|---------------------------------------------------------------------------
G|--18--16----------16-------------------------------------------------------
D|----------19--17------19--16--19--16\14------14---------14-----------------
A|-----------------------------------------16------15h16------16--15\14--12--
E|---------------------------------------------------------------------------

Stave 5:

E|--------------------------------------------------10------10-----------------12--11--10--9--
B|------------------------------------10--------12------12-----------------10-----------------
G|--------------------9------9--9/11------11\9--------------------------9---------------------
D|--7--------7--9/11-----11-------------------------------------11--11------------------------
A|-----7--9-----------------------------------------------------------------------------------
E|--------------------------------------------------------------------------------------------

Stave 6:

E|------9------------------------------------------------------------------------------------9----------
B|--12-----12--12--10--10-----------------12----------12---------10-------------10h12p10h12-----12--12--
G|-------------------------10/12------12----------12----------9----------9--11--------------------------
D|--------------------------------12----------12----------11---------11---------------------------------
A|------------------------------------------------------------------------------------------------------
E|------------------------------------------------------------------------------------------------------

Stave 7:

E|-----------------------------------------------------------------------------12--10--10--10--
B|--10--10--10-----------------------------------------------------12--10--12------------------
G|--------------11--11--11p9--9--9--9-----------------------9----------------------------------
D|-------------------------------------11--11-----11p10h11-----11------------------------------
A|---------------------------------------------------------------------------------------------
E|---------------------------------------------------------------------------------------------

Stave 8:

E|--17--14------------------------------------------------------14--15--16--17--17--
B|----------17--15--15--14--14--15--16--17--14--14--15--15--15----------------------
G|----------------------------------------------------------------------------------
D|----------------------------------------------------------------------------------
A|----------------------------------------------------------------------------------
E|----------------------------------------------------------------------------------

Stave 9:

E|--
B|--
G|--
D|--
A|--
E|--

Stave 10:

E|--17------16----------------------------------------------------------------------------------
B|------19------17--19------17--19--------------------------------------------------------------
G|----------------------18----------19--16--18--18p16--18p16---------------------14-------------
D|------------------------------------------------------------19--16--19--15/16------16\14--12--
A|----------------------------------------------------------------------------------------------
E|----------------------------------------------------------------------------------------------

Stave 11:

E|-------------------------------------------------------------------------------------
B|---------------------------------------------------------12--------------------------
G|--------------------------11h12------11--12------11--12------14--14--14--11----------
D|----------11--12--13--14---------14----------14------------------------------12--11--
A|--12--14-----------------------------------------------------------------------------
E|-------------------------------------------------------------------------------------

Stave 12:

E|--------------------------------------------------------
B|----------------------------------------------------10--
G|--------------------------------------------------------
D|--11--12--9--11--9----------9--------7--7--7--9/11------
A|--------------------12--12-----7--9---------------------
E|--------------------------------------------------------

http://www.guitartabcreator.com
Guitar Tab Creator is intended to store guitar tab created through the tool. It currently does not support in-line text editing. Any text you place in here will be lost. If you need to comment on your tab, please use the "Tab Notes" section located below.