Sound will begin in 5 seconds

Flying home remastered take- turnaround section trumpet solo

01234567891011121314151617181920212223
E
B
G
D
A
E
B
0 1 2 3 4 5 6 7 8 9 10 11 12 13 14 15 16 17 18 19 20 21 22 23
Song Science #1: How Pros Use 6 Chords to Write Hit Songs
(/) Slide Up  (\) Slide Down  (h) Hammer On  (p) Pull Off  (b) Bend (r) Release (v) Vibrato

Stave 1:

E|----------11--15--13--11------------------------------------13------------------------------
B|------11------------------14--11--------------------------------13-----15p14p13p12--15--13--
G|--12------------------------------12--10------12--15\14\12----------------------------------
D|------------------------------------------12------------------------------------------------
A|--------------------------------------------------------------------------------------------
E|--------------------------------------------------------------------------------------------

Stave 2:

E|--18--15--18--17----------------15--18--14--17--13--17--11--15--10--14--8--11--10--15------14------
B|----------------------------13---------------------------------------------------------13------15--
G|---------------------13h14-------------------------------------------------------------------------
D|---------------------------------------------------------------------------------------------------
A|---------------------------------------------------------------------------------------------------
E|---------------------------------------------------------------------------------------------------

Stave 3:

E|--14------14------13------
B|------13------11------13--
G|--------------------------
D|--------------------------
A|--------------------------
E|--------------------------

http://www.guitartabcreator.com
Guitar Tab Creator is intended to store guitar tab created through the tool. It currently does not support in-line text editing. Any text you place in here will be lost. If you need to comment on your tab, please use the "Tab Notes" section located below.