Sound will begin in 5 seconds

Flying home remastered take

01234567891011121314151617181920212223
E
B
G
D
A
E
B
0 1 2 3 4 5 6 7 8 9 10 11 12 13 14 15 16 17 18 19 20 21 22 23
Song Science #1: How Pros Use 6 Chords to Write Hit Songs
(/) Slide Up  (\) Slide Down  (h) Hammer On  (p) Pull Off  (b) Bend (r) Release (v) Vibrato

Stave 1:

E|--10------------------------------------------------------------------------------
B|------12---------------------------------------17--15-----------------------------
G|----------10/11------------------10/11-----14----------16--14--12--10/11----------
D|-----------------12--10--12--12-------------------------------------------12------
A|------------------------------------------------------------------------------12--
E|----------------------------------------------------------------------------------

Stave 2:

E|----------------------------------------------------12--10-----------------------------10--
B|------------------------------------------------10----------13--12--10-------------10------
G|------11--12--14--12--11-----------------10h11--------------------------12--10h11----------
D|--12----------------------12------12-------------------------------------------------------
A|------------------------------14-----------------------------------------------------------
E|-------------------------------------------------------------------------------------------

Stave 3:

E|-----8----------------------------------------------------------------------------------------
B|--7-----6----------------------------7--10--9--8--7--------------------7----------------------
G|-----------7--7--7--9/11----------7------------------7-----------7--9-----9--7-------7--7--7--
D|-----------------------------6/7------------------------9--7--------------------9p7-----------
A|----------------------------------------------------------------------------------------------
E|----------------------------------------------------------------------------------------------

Stave 4:

E|------------------------------------7--5--3-----------------------5--
B|-----------------------7---------------------4-----4-----4-----4-----
G|--7--7--7h9p7--9p7--9-----9p7--7p5--------------5-----5-----5--------
D|---------------------------------------------------------------------
A|---------------------------------------------------------------------
E|---------------------------------------------------------------------

Stave 5:

E|--7--6--5--4--4--3-----------------------------------2--------------------------------------------
B|--------------------4-----------------------------------5-----3--------------6--------------------
G|-----------------------5--1--------------------1--4--------5-----------4--6-----7-----------6-----
D|-----------------------------4--3--2--1--0-----------------------5--7--------------9--7--6-----7--
A|--------------------------------------------------------------------------------------------------
E|--------------------------------------------------------------------------------------------------

Stave 6:

E|---------------------------------------------------------10--10--10--
B|-----------------7--10--10--10--10--10------------7--10--------------
G|-----5--------7----------------------------7\6/7---------------------
D|--7--------7---------------------------------------------------------
A|---------------------------------------------------------------------
E|---------------------------------------------------------------------

Stave 7:

E|-----------------------------------------------------------------
B|--17b19r17--15------------------------10-------------------------
G|----------------16--14--16-----10/11------12--10/11--------------
D|-----------------------------------------------------12--10--12--
A|-----------------------------------------------------------------
E|-----------------------------------------------------------------

http://www.guitartabcreator.com
Guitar Tab Creator is intended to store guitar tab created through the tool. It currently does not support in-line text editing. Any text you place in here will be lost. If you need to comment on your tab, please use the "Tab Notes" section located below.