Sound will begin in 5 seconds

flying home newest take

01234567891011121314151617181920212223
E
B
G
D
A
E
B
0 1 2 3 4 5 6 7 8 9 10 11 12 13 14 15 16 17 18 19 20 21 22 23
Song Science #1: How Pros Use 6 Chords to Write Hit Songs
(/) Slide Up  (\) Slide Down  (h) Hammer On  (p) Pull Off  (b) Bend (r) Release (v) Vibrato

Stave 1:

E|---------------------------------------------------------------------------
B|---------------------------------------------------------------------------
G|--6-----6--8--10--10--10--10-----10-----10--8--10--11--10--8------------8--
D|-----8--------------------------------------------------------10--9--8-----
A|---------------------------------------------------------------------------
E|---------------------------------------------------------------------------

Stave 2:

E|----------13b15--13--11----------11-----14--11-------------------------------------------------
B|-------------------------13--11-----------------13--11-------------11--------------------------
G|------12------------------------------------------------13--11/12------13--12------------------
D|--13---------------------------------------------------------------------------13--10--13--13--
A|-----------------------------------------------------------------------------------------------
E|-----------------------------------------------------------------------------------------------

Stave 3:

E|--------------11--11--11----------------------------------------------------------13--11--
B|----------11--------------15--15--14--14--13--13--12--12--11--11--------------11----------
G|------12----------------------------------------------------------13--11--12--------------
D|--13--------------------------------------------------------------------------------------
A|------------------------------------------------------------------------------------------
E|------------------------------------------------------------------------------------------

Stave 4:

E|----------11----------11--------------------------------------------11------------------
B|------13------13--11------11--14--13-------------11--13---------11------14--13--11------
G|--11----------------------------------13--11h12----------11h12----------------------13--
D|----------------------------------------------------------------------------------------
A|----------------------------------------------------------------------------------------
E|----------------------------------------------------------------------------------------

Stave 5:

E|-----------------11-----------------------------------------------------------------------------
B|---------11--13-------------11--13--14--13--11----------------------13--12------11--------------
G|--11h12-----------------------------------------10--12----------10----------12------12--11--10--
D|------------------------13------------------------------11--13----------------------------------
A|------------------------------------------------------------------------------------------------
E|------------------------------------------------------------------------------------------------

Stave 6:

E|--8-----------------------------------------------------------------------------------------
B|-----11--9---------------------------11--10--9--8-------------------------------------8--8--
G|------------9----------8----------8----------------8-------------------------------5--------
D|---------------11--10---------10----------------------10--7------------------7--8-----------
A|--------------------------11---------------------------------10--9--8--7--6-----------------
E|--------------------------------------------------------------------------------------------

Stave 7:

E|-------------------------------------------------------------------------------------------
B|-----6-----------8--------6--------------------7-------------------13----------------------
G|--7-----7--6--5-----5--7-----5--7--------5--7------------------11------11------------------
D|-----------------------------------6--8-----------4/5--4/5-----------------13--13--13--13--
A|-------------------------------------------------------------------------------------------
E|-------------------------------------------------------------------------------------------

Stave 8:

E|-----11-------------------------13--11------11--------------------------11--13b15--13----------
B|-------------13-------------11----------13------12--11--13----------11-----------------13--11--
G|--8---------------------12----------------------------------11--12-----------------------------
D|---------10---------13-------------------------------------------------------------------------
A|-----------------------------------------------------------------------------------------------
E|-----------------------------------------------------------------------------------------------

Stave 9:

E|---------------------11--------------------------
B|-------------11--13----------13------13------13--
G|--13--11/12--------------11------11------11------
D|-------------------------------------------------
A|-------------------------------------------------
E|-------------------------------------------------

http://www.guitartabcreator.com
Guitar Tab Creator is intended to store guitar tab created through the tool. It currently does not support in-line text editing. Any text you place in here will be lost. If you need to comment on your tab, please use the "Tab Notes" section located below.