Sound will begin in 5 seconds

flying home mixed ideas verse 1

01234567891011121314151617181920212223
E
B
G
D
A
E
B
0 1 2 3 4 5 6 7 8 9 10 11 12 13 14 15 16 17 18 19 20 21 22 23
Song Science #1: How Pros Use 6 Chords to Write Hit Songs
(/) Slide Up  (\) Slide Down  (h) Hammer On  (p) Pull Off  (b) Bend (r) Release (v) Vibrato

Stave 1:

E|--11------------------------------------------------------13--11-----------------------------11--
B|------13----------------------------------------------11----------14--13--11-------------11------
G|----------11/12------------------11/12---------11h12--------------------------13--11h12----------
D|-----------------13--10--13--13------------13----------------------------------------------------
A|-------------------------------------------------------------------------------------------------
E|-------------------------------------------------------------------------------------------------

Stave 2:

E|--8--------------------------------------13--11-------------11-----------------
B|-----7--7----------------------------11----------14--13h14------14-------------
G|-----------8--8--8--10/12-----11h12---------------------------------11/12------
D|---------------------------------------------------------------------------13--
A|-------------------------------------------------------------------------------
E|-------------------------------------------------------------------------------

Stave 3:

E|--11-----------------------------------------------------------------------------------------
B|------14-----------------------------------------------------8--11p10p9------8---------------
G|----------11h12----------------------------11/12----------8--------------10-----8---------8--
D|-----------------13p12p11------11--12--13------------7/8---------------------------10--8-----
A|---------------------------13----------------------------------------------------------------
E|---------------------------------------------------------------------------------------------

Stave 4:

E|---------------------------------------
B|---------8-----------------------------
G|--8--10-----10--8---------8------8--8--
D|-------------------10--8-----10--------
A|---------------------------------------
E|---------------------------------------

Stave 5:

E|-----------------------------------------------------------------------------------------------------
B|--13--11----------------------------------------------------------------------9----------------------
G|----------10--12----------10-------------------------8---------------------8-----11p10--8------------
D|------------------11--13------11------------------8-----11--10--8------10------------------9h10------
A|----------------------------------13--12--11--10-------------------11----------------------------10--
E|-----------------------------------------------------------------------------------------------------

Stave 6:

E|--8--7------------------------------------------------------------------------------------------------
B|--------11--10--9--8----------------------------------8--6--------------------6-----------------------
G|----------------------8----------------------------5--------5--7--------5--7-----7--5--------7-----5--
D|-------------------------10--7------------------7-----------------6--8-----------------8--7-----8-----
A|--------------------------------10--9--8--7--6--------------------------------------------------------
E|------------------------------------------------------------------------------------------------------

Stave 7:

E|--6----------------------------------------------------------------
B|-----7/8---------------------------------------------------6-------
G|----------8p6-----8--6-------------------------------8--7-----7/8--
D|---------------8--------8--7--6--4/5-----5--6--7--8----------------
A|--------------------------------------6----------------------------
E|-------------------------------------------------------------------

http://www.guitartabcreator.com
Guitar Tab Creator is intended to store guitar tab created through the tool. It currently does not support in-line text editing. Any text you place in here will be lost. If you need to comment on your tab, please use the "Tab Notes" section located below.