Sound will begin in 5 seconds

flying home charlie christian electric turnaround solo- 0:28

01234567891011121314151617181920212223
E
B
G
D
A
E
B
0 1 2 3 4 5 6 7 8 9 10 11 12 13 14 15 16 17 18 19 20 21 22 23
Song Science #1: How Pros Use 6 Chords to Write Hit Songs
(/) Slide Up  (\) Slide Down  (h) Hammer On  (p) Pull Off  (b) Bend (r) Release (v) Vibrato

Stave 1:

E|--------------------------15--18--15--14--18--15------18------------------15------------------
B|--------------16--18--16--------------------------18------16--18--16--15------16--15----------
G|----------15--------------------------------------------------------------------------18--17--
D|------17--------------------------------------------------------------------------------------
A|--18------------------------------------------------------------------------------------------
E|----------------------------------------------------------------------------------------------

Stave 2:

E|--20--------------18--17------------------------22--20--22--20--------------------------------------
B|--------------20-----------------20-----------------------------20--18--20--------------18----------
G|------17--20-------------------------17--20---------------------------------19--17--19------19--17--
D|--------------------------18h19---------------------------------------------------------------------
A|----------------------------------------------------------------------------------------------------
E|----------------------------------------------------------------------------------------------------

Stave 3:

E|--------------
B|--------------
G|----------17--
D|--16--15------
A|--------------
E|--------------

http://www.guitartabcreator.com
Guitar Tab Creator is intended to store guitar tab created through the tool. It currently does not support in-line text editing. Any text you place in here will be lost. If you need to comment on your tab, please use the "Tab Notes" section located below.