Sound will begin in 5 seconds

flying home altenrate take

01234567891011121314151617181920212223
E
B
G
D
A
E
B
0 1 2 3 4 5 6 7 8 9 10 11 12 13 14 15 16 17 18 19 20 21 22 23
Song Science #1: How Pros Use 6 Chords to Write Hit Songs
(/) Slide Up  (\) Slide Down  (h) Hammer On  (p) Pull Off  (b) Bend (r) Release (v) Vibrato

Stave 1:

E|--------------------------------------------------------------------------------
B|--------------------------------------------------------------------------------
G|--6-----6h8/10-----8h10-----6--6--8--10-----9/10-----------------------------8--
D|-----8----------8--------8------------------------11--8--10-----------8--10-----
A|-------------------------------------------------------------8--9/10------------
E|--------------------------------------------------------------------------------

Stave 2:

E|--------------13--11-----------------------------------------------------------------------------------
B|----------11----------14--13--11-------------11--13--11-----13--------------11--11---------------------
G|------12--------------------------13--11h12---------------------11--11--12----------13--11h12----------
D|--13-------------------------------------------------------------------------------------------13--10--
A|-------------------------------------------------------------------------------------------------------
E|-------------------------------------------------------------------------------------------------------

Stave 3:

E|----------11--11-----------------------------------------------8----------------
B|------------------------7--10--9--8--8----------------------7-----7-------------
G|------12-------------7------------------8------8--10/12--------------8--8--8--8\
D|--13---------------------------------------10-----------------------------------
A|--------------------------------------------------------------------------------
E|--------------------------------------------------------------------------------

Stave 4:

E|---------------------------------------------------------------------------11--
B|-----------------------------------------------11----------------------11------
G|-----------10--8-----------10-----------10/12------12--------------12----------
D|--------8---------10--8/9------9--8--------------------13--10--13--------------
A|--9/10-------------------------------------------------------------------------
E|-------------------------------------------------------------------------------

Stave 5:

E|--------------------------------------------------------------------------------------------------
B|--13--11-------------------------------------------------------------------9----------------------
G|----------10--12----------10-------------------------8------------------8-----11p10--8------------
D|------------------11--13------11------------------8-----11--10------10------------------9h10------
A|----------------------------------13--12--11--10----------------11----------------------------11--
E|--------------------------------------------------------------------------------------------------

Stave 6:

E|--------------------------------------------------------------------------------------------
B|---------13--15--16------15--13-------------------------------------------------------------
G|--10/14--------------14----------12--14----------12-----------------------------10--12--13--
D|-----------------------------------------13--15------13---------------------13--------------
A|---------------------------------------------------------15--14--13-----12------------------
E|--------------------------------------------------------------------------------------------

Stave 7:

E|-----------------------------------------------------------------------------------11--
B|-------------------------------------------------------------------------------11------
G|--12h13p12--10--------------------8-----------8-----8--10/12-----8---------12----------
D|----------------13--12--10--9--8--------8--8-----8------------8--------13--------------
A|---------------------------------------------------------------------------------------
E|---------------------------------------------------------------------------------------

Stave 8:

E|-----------------------------11-----------------------------------------------------------------
B|--14--13--11-------------11------15--15--14--14--13--13--12--12--11--11-------------11--11--13--
G|--------------13--11h12--------------------------------------------------13--11/12--------------
D|------------------------------------------------------------------------------------------------
A|------------------------------------------------------------------------------------------------
E|------------------------------------------------------------------------------------------------

Stave 9:

E|------------------------------------------
B|---------11-------------------------------
G|--11h12------13--12----------8--8--10/12--
D|---------------------13--10---------------
A|------------------------------------------
E|------------------------------------------

http://www.guitartabcreator.com
Guitar Tab Creator is intended to store guitar tab created through the tool. It currently does not support in-line text editing. Any text you place in here will be lost. If you need to comment on your tab, please use the "Tab Notes" section located below.