Sound will begin in 5 seconds

Fire 2/5/78 part 3

01234567891011121314151617181920212223
E
B
G
D
A
E
B
0 1 2 3 4 5 6 7 8 9 10 11 12 13 14 15 16 17 18 19 20 21 22 23
Song Science #1: How Pros Use 6 Chords to Write Hit Songs
(/) Slide Up  (\) Slide Down  (h) Hammer On  (p) Pull Off  (b) Bend (r) Release (v) Vibrato

Stave 1:

E|-----------------------------------------------------------------------------16--------------
B|----------------------------------16--19--17--16--17--16--17-------------17------17------17--
G|----------16----------16------16------------------------------18-----18--------------18------
D|--16--16------16--18------18-----------------------------------------------------------------
A|---------------------------------------------------------------------------------------------
E|---------------------------------------------------------------------------------------------

Stave 2:

E|------------------------------------------------------------------------------------------------------
B|--19p17------17--16------16-----------------------------------------------------------------------17--
G|---------18----------18------18p16------18--16--------------------------------16--------------16------
D|------------------------------------18----------18p16------16---------16--19------18------18----------
A|-------------------------------------------------------18------17h18------------------19--------------
E|------------------------------------------------------------------------------------------------------

Stave 3:

E|----------------------16--17--19-----19--17--16------17--16----------16------------------------------
B|----------17--17--19-----------------------------19----------19--17------19--17--16--19--17--16------
G|------16-----------------------------------------------------------------------------------------18--
D|--18-------------------------------------------------------------------------------------------------
A|-----------------------------------------------------------------------------------------------------
E|-----------------------------------------------------------------------------------------------------

Stave 4:

E|-----------------------------------------------------------------------------------18--19--
B|--17--16-------------------------------------------------------19--19----------19----------
G|----------18--16------16--18--18b20r16--16--18------16--18/20----------20--20--------------
D|------------------18----------------------------18-----------------------------------------
A|-------------------------------------------------------------------------------------------
E|-------------------------------------------------------------------------------------------

Stave 5:

E|--19--21--19--17--19--17--16--17--16----------16----------------------------
B|--------------------------------------19--17------17h19p17--16h17p16--------
G|----------------------------------------------------------------------------
D|----------------------------------------------------------------------------
A|----------------------------------------------------------------------------
E|----------------------------------------------------------------------------

Stave 6:

E|-------------------------------------------------------------------------------------------------
B|--16--17p16--17--17b19r17--16--17-----16--16-----------------19----------------------------------
G|----------------------------------------------18--16--18b20------20r18--18--16--18b20r18p16--18--
D|-------------------------------------------------------------------------------------------------
A|-------------------------------------------------------------------------------------------------
E|-------------------------------------------------------------------------------------------------

Stave 7:

E|------------------------------------
B|-------7----------------------------
G|--7/8-----9--7--8-------------------
D|-------------------9--7-----6h7--7--
A|-------------------------9----------
E|------------------------------------

http://www.guitartabcreator.com
Guitar Tab Creator is intended to store guitar tab created through the tool. It currently does not support in-line text editing. Any text you place in here will be lost. If you need to comment on your tab, please use the "Tab Notes" section located below.