Sound will begin in 5 seconds

Fire 2/5/78 part 2

01234567891011121314151617181920212223
E
B
G
D
A
E
B
0 1 2 3 4 5 6 7 8 9 10 11 12 13 14 15 16 17 18 19 20 21 22 23
Song Science #1: How Pros Use 6 Chords to Write Hit Songs
(/) Slide Up  (\) Slide Down  (h) Hammer On  (p) Pull Off  (b) Bend (r) Release (v) Vibrato

Stave 1:

E|-------------------------------------------------------------------
B|-------------------------------------------------------------------
G|--11--9--11--9-----8--8--8-----6--6--6-----6--8--8--8--6-----------
D|----------------------------------------9-----------------9--7--9--
A|----------------------------9--------------------------------------
E|-------------------------------------------------------------------

Stave 2:

E|--------------------------------------------------------------------------------------7--7------
B|--------------------------7--9--9--7-----7-----------------------------------------7--------10--
G|-----6--8--9-----6--8--9--------------------9--8--6-----6--8--9--6--8-----6--8--9---------------
D|--9--------------------------------------------------9-----------------9------------------------
A|------------------------------------------------------------------------------------------------
E|------------------------------------------------------------------------------------------------

Stave 3:

E|-----------------------------------------------------------------------------------------------------
B|--10--10--7-----9--9--7-----7--7---------------------------------------------------9------9--10--12--
G|-------------6-----------6--------9--9--9--8---------8--9------8--9--11--8--9--11-----11-------------
D|----------------------------------------------9--11--------11----------------------------------------
A|-----------------------------------------------------------------------------------------------------
E|-----------------------------------------------------------------------------------------------------

Stave 4:

E|-------------9---------9--11------9--11--12--12/14--14--14p12p11h12------11----------11------
B|--9--10--12--------12---------12-------------------------------------14------12--14------12--
G|---------------------------------------------------------------------------------------------
D|---------------------------------------------------------------------------------------------
A|---------------------------------------------------------------------------------------------
E|---------------------------------------------------------------------------------------------

Stave 5:

E|-----------------------------------------------------------------------------------------------
B|--------------------------14--12--------------------------------10-----------------12--12--12--
G|--11--13--14--14--13--14----------13-------------------------9---------------------------------
D|--------------------------------------14--11------11-----11---------11/14--13--14--------------
A|----------------------------------------------12-----------------------------------------------
E|-----------------------------------------------------------------------------------------------

Stave 6:

E|---------------------------------------------------------------------11--12--14--16--17p16p14h16--
B|----------------------------------------------14--17--16--14\12--14-------------------------------
G|--14--13--11--13------11--13--14----------14------------------------------------------------------
D|------------------14------------------16----------------------------------------------------------
A|----------------------------------16--------------------------------------------------------------
E|--------------------------------------------------------------------------------------------------

Stave 7:

E|------14----------------------------------------------19--16----------16--17------16----------16------
B|--17------16--17--17/19--19--19p18p17p16------16--17----------17--19----------19------17--18------17--
G|------------------------------------------18----------------------------------------------------------
D|------------------------------------------------------------------------------------------------------
A|------------------------------------------------------------------------------------------------------
E|------------------------------------------------------------------------------------------------------

Stave 8:

E|-----------------16--19-----19--17--16------16----------16------------------16--------------16------
B|-------------17-------------------------19------17--19------17------16--17------17------17------19--
G|--18-----18-----------------------------------------------------18------------------18--------------
D|----------------------------------------------------------------------------------------------------
A|----------------------------------------------------------------------------------------------------
E|----------------------------------------------------------------------------------------------------

Stave 9:

E|-----------------------------------------------------------------------------------------------
B|--17------17--16----------16-------------------------------------------------------------------
G|------18----------18--16------18--17--16---------16-----------------16-------------------------
D|------------------------------------------17/18------18--16------------------------------------
A|-------------------------------------------------------------17h18------18\16--14--16--14--12--
E|-----------------------------------------------------------------------------------------------

Stave 10:

E|-------------------------------------------------------------11--11------------------------------
B|---------------------9-----------------------------------12----------14--12--------------14--14--
G|------------------9-----11--9------------------------11----------------------14--11--14----------
D|------11------11---------------11--9-----13------13----------------------------------------------
A|--12------12---------------------------------14--------------------------------------------------
E|-------------------------------------------------------------------------------------------------

Stave 11:

E|----------11--12--14--16------14--16--17--17/19--19--19p17p16h17------16----------16--19--
B|------14------------------17--------------------------------------19------17--19----------
G|--14--------------------------------------------------------------------------------------
D|------------------------------------------------------------------------------------------
A|------------------------------------------------------------------------------------------
E|------------------------------------------------------------------------------------------

Stave 12:

E|--18b20--20r18--17--------------------------------------------19--21--21--19--21b23--23r21--19------19--
B|--------------------19b21--19b21--19b21r19--17--19--19------------------------------------------21------
G|--------------------------------------------------------------------------------------------------------
D|--------------------------------------------------------------------------------------------------------
A|--------------------------------------------------------------------------------------------------------
E|--------------------------------------------------------------------------------------------------------

Stave 13:

E|--19--19--21p19--21--21--21b23--23--23--23r21--19--21--21--19-----19--19------------------------
B|--------------------------------------------------------------------------21-----21--21p19--19--
G|------------------------------------------------------------------------------------------------
D|------------------------------------------------------------------------------------------------
A|------------------------------------------------------------------------------------------------
E|------------------------------------------------------------------------------------------------

Stave 14:

E|----------------------21b23--23r21--19--21--21--19--19--17--17-----16--17--17p16----------16--
B|--19--19--19--19--19--------------------------------------------------------------19--17------
G|----------------------------------------------------------------------------------------------
D|----------------------------------------------------------------------------------------------
A|----------------------------------------------------------------------------------------------
E|----------------------------------------------------------------------------------------------

Stave 15:

E|------16----------------------------------------------------------------------------------------------
B|--19------17------17---------17--19p17---------17----------17-----------------------------------------
G|--------------18------18h19-------------19---------18----------18------18-----13--13------------------
D|-------------------------------------------------------19----------19-----------------14--16--14--13--
A|------------------------------------------------------------------------------------------------------
E|------------------------------------------------------------------------------------------------------

http://www.guitartabcreator.com
Guitar Tab Creator is intended to store guitar tab created through the tool. It currently does not support in-line text editing. Any text you place in here will be lost. If you need to comment on your tab, please use the "Tab Notes" section located below.