Sound will begin in 5 seconds

Fire 2/5/78

01234567891011121314151617181920212223
E
B
G
D
A
E
B
0 1 2 3 4 5 6 7 8 9 10 11 12 13 14 15 16 17 18 19 20 21 22 23
Song Science #1: How Pros Use 6 Chords to Write Hit Songs
(/) Slide Up  (\) Slide Down  (h) Hammer On  (p) Pull Off  (b) Bend (r) Release (v) Vibrato

Stave 1:

E|-------------------------------------------------------------------------------------
B|-------------------------------------------------------------------------------------
G|--------------------2-------------------------------------------1--2--2-----2--4--2--
D|-----------------------5--4--2-----------------2--2/4--2--2--4-----------------------
A|--------4--5--7-----------------5--4--2--4--5----------------------------------------
E|--5--7-------------------------------------------------------------------------------

Stave 2:

E|----------------------------------------------------------------------------------------------------
B|--------------------------------------------7--7----------------------------------------------------
G|--2p1p0--0-----------0--1/2--------6--7--8--------8-------------------------------------------------
D|------------4--2--4-------------9--------------------9--6--7--7-----6--------6--7--8--9--7p6-----6--
A|-----------------------------------------------------------------9-----7--9-------------------9-----
E|----------------------------------------------------------------------------------------------------

Stave 3:

E|---------------------------------------------------------------------------------------9--10p9--10--9--
B|--------------------------------------------------------------------7-----------10---------------------
G|----------------------------------------------4----------------6/8-----------9-------------------------
D|--------6----------------------------------4-----4--6--7p6--4----------9/11----------------------------
A|--7--9-----9--7--6--7--8--9-------------6--------------------------------------------------------------
E|-----------------------------7-----6h7-----------------------------------------------------------------

Stave 4:

E|--7--7--9--10--10/12-----11--12-----9--11------9----------9----------------------------
B|-------------------------------------------12-----10--12-----10------9--10--11--12-----
G|-----------------------------------------------------------------11--------------------
D|---------------------------------------------------------------------------------------
A|---------------------------------------------------------------------------------------
E|---------------------------------------------------------------------------------------

Stave 5:

E|-----------------------------------------------------------------------------------------
B|--12--10--9--10------9-------------------------------------------------------------------
G|-----------------11-----9--11--8--9------8-----------------------------------------------
D|-------------------------------------11-----9--11--11--7--9--8--7--6h7p6-----6--4--6--4--
A|--------------------------------------------------------------------------9--------------
E|-----------------------------------------------------------------------------------------

Stave 6:

E|-------------------------------------------------------------------------
B|-------------------------------------------------------------------------
G|-------------------------------8-----------------------------------------
D|----------------------------------9--7p6h7--6--7p6-----------------------
A|-----------------6-----6--7/9-----------------------9--7--9--7--6--------
E|--7--7--5--6--7-----7----------------------------------------------9--7--

Stave 7:

E|---------------------------------------------------------------------------------
B|----------------------------------------5----------7--------------10-------7-----
G|-----------4-------------------------4-----6--7/8-----8--------9------8h9--------
D|--------4-----7p6--4--6-----4--6--7----------------------9--7-----------------9--
A|-----6-------------------7-------------------------------------------------------
E|--7------------------------------------------------------------------------------

Stave 8:

E|----------------------11--11--12--14-----12--11---------------------------------------------------------
B|--12----------12--14-----------------------------14--14--15--16--14--16--17--16--14------14-------------
G|------11--13-------------------------------------------------------------------------16------15h16--16--
D|--------------------------------------------------------------------------------------------------------
A|--------------------------------------------------------------------------------------------------------
E|--------------------------------------------------------------------------------------------------------

Stave 9:

E|----------------------------------------------------------------------------------------------------
B|----------16--17--16--16-----16--17--19--16----------17--16-------------17--16----------16----------
G|--16--18-------------------------------------16--18----------17/18--18----------18--16------18--16--
D|----------------------------------------------------------------------------------------------------
A|----------------------------------------------------------------------------------------------------
E|----------------------------------------------------------------------------------------------------

Stave 10:

E|--------------------------------------
B|--------------------------------------
G|--14p13h14p13---------------------11--
D|---------------16--13------12/13------
A|-----------------------14-------------
E|--------------------------------------

http://www.guitartabcreator.com
Guitar Tab Creator is intended to store guitar tab created through the tool. It currently does not support in-line text editing. Any text you place in here will be lost. If you need to comment on your tab, please use the "Tab Notes" section located below.