Sound will begin in 5 seconds

eyes of the world 8/6/74 solo 2

01234567891011121314151617181920212223
E
B
G
D
A
E
B
0 1 2 3 4 5 6 7 8 9 10 11 12 13 14 15 16 17 18 19 20 21 22 23
Song Science #1: How Pros Use 6 Chords to Write Hit Songs
(/) Slide Up  (\) Slide Down  (h) Hammer On  (p) Pull Off  (b) Bend (r) Release (v) Vibrato

Stave 1:

E|-------------------------14--16--17--16--14--16--14----------14---------------------------------
B|--16p15h16--16h17p16h17------------------------------17--16------17--16--14--14--15p14------14--
G|----------------------------------------------------------------------------------------16------
D|------------------------------------------------------------------------------------------------
A|------------------------------------------------------------------------------------------------
E|------------------------------------------------------------------------------------------------

Stave 2:

E|-------------------------------------------------------------------------------------------------
B|---------14--17--17--15--14------15p14------14--------------------14-----------------------------
G|--15h16----------------------16---------16------16p14------14----------------14------------------
D|-------------------------------------------------------16------------------------16--15--14--12--
A|----------------------------------------------------------------------13/14----------------------
E|-------------------------------------------------------------------------------------------------

Stave 3:

E|------------------------------------------------------10-----10--10--9/10--10--10\9------
B|--------------------------------9--9--10p9--9--11/12---------------------------------12--
G|--------------------------9--9-----------------------------------------------------------
D|--12\11----------------9-----------------------------------------------------------------
A|---------12--12/14-----------------------------------------------------------------------
E|-----------------------------------------------------------------------------------------

Stave 4:

E|--9-------------------------------9-----9----------9------------------------------------
B|-----12p10------9/10------10--11-----------12---------12--10--10---------10-------------
G|------------11--------11-----------------------11-----------------10h11------11--10--9--
D|----------------------------------------------------------------------------------------
A|----------------------------------------------------------------------------------------
E|----------------------------------------------------------------------------------------

Stave 5:

E|----------------------------12--12--12--11--11--12--14--16--17--16\15--14------------------14----------
B|-------------10--10--12/14-------------------------------------------------------------15------17------
G|--9--10--11----------------------------------------------------------------14------16--------------16--
D|-------------------------------------------------------------------------------16----------------------
A|-------------------------------------------------------------------------------------------------------
E|-------------------------------------------------------------------------------------------------------

Stave 6:

E|-----------------------------------------------------------------------------------------
B|--17--15--14------14--15p14------14------------------------------------------------------
G|--------------16-------------16------16p14------14h16p14------14---------16--------------
D|--------------------------------------------16------------16------16/18------18--17--16--
A|-----------------------------------------------------------------------------------------
E|-----------------------------------------------------------------------------------------

Stave 7:

E|-------------------------------------------------------------------------------
B|-------------------------------------------------------------------------------
G|-------------------------------------------------------------------------------
D|------14------14---------14--16--15--14--14---------14-------------------------
A|--16------16------15h16----------------------15h16------16--15--14--13/14--14--
E|-------------------------------------------------------------------------------

Stave 8:

E|-------------------------------------------------------------------------------
B|------------------10--12--10------10-----------------------------10--9---------
G|--------------11--------------11------9----------------9--9--11---------11--9--
D|----------12-----------------------------10h11--10/11--------------------------
A|--14--14-----------------------------------------------------------------------
E|-------------------------------------------------------------------------------

Stave 9:

E|------------------------------------------------------------------------------------
B|------------------------------------------------------------------------------------
G|------9\8------8---------9----------------------------------------------9--11p10p9--
D|--11-------11-----10/11-----11--10--9------9---------11------9--10--11--------------
A|---------------------------------------11-----10h11------11-------------------------
E|------------------------------------------------------------------------------------

Stave 10:

E|-----------------------------10------10-----10--10--10------10------10--10\9--10--10\9------9--9------
B|--12--11p10------10--11--12------12---------------------12------12----------------------10--------10--
G|-------------11---------------------------------------------------------------------------------------
D|------------------------------------------------------------------------------------------------------
A|------------------------------------------------------------------------------------------------------
E|------------------------------------------------------------------------------------------------------

Stave 11:

E|----------------------------------------------------------------------------------------------
B|------9-----------------------------------------------------11b13r11--10--9-------------------
G|--11-----11p9------9--9\8------8---------9---------9-------------------------11b13r11--9------
D|---------------11----------11-----10/11-----10h11-----------------------------------------11--
A|----------------------------------------------------------------------------------------------
E|----------------------------------------------------------------------------------------------

Stave 12:

E|-------------------------------------------------------------------------------------------------
B|-------------------------------------------------------------------------------------------------
G|--9h11p9------9----------------------------------7-----------------------------------------------
D|----------11-----11\9-----8--9--7-------7--8--9-----9p7-----7----------------------5--6--7--8/9--
A|-----------------------9-----------8h9-------------------9-----8h9-----6--7--8--9----------------
E|--------------------------------------------------------------------9----------------------------

Stave 13:

E|-------------------------------------------------------------------------------------
B|-------------------------------------------------------------------------------------
G|-----------------------9---------9--11p10p9p8--------------9------9h11p9------9--11--
D|--6--------6--6--9/11-----10h11----------------9--9--9/11-----11----------11---------
A|-----7-------------------------------------------------------------------------------
E|-------------------------------------------------------------------------------------

Stave 14:

E|----------------------------------10------10--12------12--12/14--14--14--
B|----------10------12--12--12--12------10----------12---------------------
G|--11--11------11---------------------------------------------------------
D|-------------------------------------------------------------------------
A|-------------------------------------------------------------------------
E|-------------------------------------------------------------------------

Stave 15:

E|--14--14/16--16--16--16--16--16-----16--16--16--16-----16--17b19r17--16--16--
B|-----------------------------------------------------------------------------
G|-----------------------------------------------------------------------------
D|-----------------------------------------------------------------------------
A|-----------------------------------------------------------------------------
E|-----------------------------------------------------------------------------

Stave 16:

E|--16b18--18--18r16--14--14--14----------------------------------------------------------
B|--------------------------------15--15--15--------------17--17--14--14--14--------------
G|--------------------------------------------16--16--16----------------------14--14--14--
D|----------------------------------------------------------------------------------------
A|----------------------------------------------------------------------------------------
E|----------------------------------------------------------------------------------------

Stave 17:

E|-------------------------------------------------------------------------------------------
B|-------------------------------------------------------------------------------------------
G|--13--13--13-----------------11--13--14--13---------13--14--16--14--16--16--16b18--18--16--
D|--------------16--14-----14---------------------14-----------------------------------------
A|-------------------------------------------------------------------------------------------
E|-------------------------------------------------------------------------------------------

Stave 18:

E|----------------------------------17--18--19---------------------------------------------------
B|--------------17------17--19--19--------------17--18--19---------------------------------------
G|--16--16--16------16--------------------------------------17--18--19-----19--19--19p18p17--18--
D|-----------------------------------------------------------------------------------------------
A|-----------------------------------------------------------------------------------------------
E|-----------------------------------------------------------------------------------------------

Stave 19:

E|--------------------------------------------16h17p16--------------16----------------------------------
B|------------------------------------17--19------------19--17--19------19--17--16--19--17--16------16--
G|------18----------------16--------------------------------------------------------------------18------
D|--19------19\18--18---------18------------------------------------------------------------------------
A|--------------------------------19--------------------------------------------------------------------
E|------------------------------------------------------------------------------------------------------

Stave 20:

E|-------------------------------------------------------------------------------------------------------
B|--17------16-----------------------------------------------14h15p14------14----------------------------
G|------18------18p16------16--------------------14--15--16------------16------16p14------14--14\13------
D|---------------------18------18\16--14--15/16---------------------------------------16-------------14--
A|-------------------------------------------------------------------------------------------------------
E|-------------------------------------------------------------------------------------------------------

Stave 21:

E|----------------------------------------
B|----------------------------------------
G|--13h14p13--13--14----------------------
D|--------------------16--14--------------
A|----------------------------16--14------
E|------------------------------------12--

http://www.guitartabcreator.com
Guitar Tab Creator is intended to store guitar tab created through the tool. It currently does not support in-line text editing. Any text you place in here will be lost. If you need to comment on your tab, please use the "Tab Notes" section located below.