Sound will begin in 5 seconds

eyes of the world 8/6/74 solo 1

01234567891011121314151617181920212223
E
B
G
D
A
E
B
0 1 2 3 4 5 6 7 8 9 10 11 12 13 14 15 16 17 18 19 20 21 22 23
Song Science #1: How Pros Use 6 Chords to Write Hit Songs
(/) Slide Up  (\) Slide Down  (h) Hammer On  (p) Pull Off  (b) Bend (r) Release (v) Vibrato

Stave 1:

E|--9h11--11--9--------------------------------------------------------------------------
B|---------------12p9------9--10---------9-----------------------------------------------
G|---------------------11---------9--11-----11--9------9h11p9------9--9--9-----8---------
D|-------------------------------------------------11----------11-----------9-----10/12--
A|---------------------------------------------------------------------------------------
E|---------------------------------------------------------------------------------------

Stave 2:

E|-------------------------------------------------------------------------------------------------
B|------12p10------10--12p10------10--10--9-----9h10p9------9--------------------------------------
G|--11---------11-------------11------------------------11-----11p9------9h11p9------9-------------
D|-------------------------------------------------------------------11----------11-----11--10--9--
A|-------------------------------------------------------------------------------------------------
E|-------------------------------------------------------------------------------------------------

Stave 3:

E|--------------------------------------------------------------------------------------------
B|--------------------------------------------------------------------------------------------
G|-----------------------------9------9--9--8-----8---------9---------------------------------
D|--------9---------9h11p9h11-----11-----------------10h11-----11--10--9------9---------9-----
A|--9h11-----10h11--------------------------------------------------------11-----10h11-----11\
E|--------------------------------------------------------------------------------------------

Stave 4:

E|----------------------------------------------------------------------------------------------------
B|--------------------------------------------------6h7p6---------------------------------------------
G|-------------7--------9--7-------7-----7--9p7--9---------9--7-----7h9p7-----7--------9--9--9--8-----
D|----------7--------7--------8h9-----9--------------------------9---------9-----9/11--------------9--
A|--8--8/9--------9-----------------------------------------------------------------------------------
E|----------------------------------------------------------------------------------------------------

Stave 5:

E|----------------------------------------12--12--11--11--12--12--11--11--12-----10--10----------10--
B|-------------------------9--10--11--12-------------------------------------------------12--10------
G|--------9---------9--11----------------------------------------------------------------------------
D|--9/11-----10h11-----------------------------------------------------------------------------------
A|---------------------------------------------------------------------------------------------------
E|---------------------------------------------------------------------------------------------------

Stave 6:

E|--10--10p9------10--10--10--10--10--10--10--10p9-----------------12------------------------------
B|------------12------------------------------------12--12--11b13------13r11--10--9----------------
G|-----------------------------------------------------------------------------------11--9------9--
D|------------------------------------------------------------------------------------------11-----
A|-------------------------------------------------------------------------------------------------
E|-------------------------------------------------------------------------------------------------

Stave 7:

E|------------------------------------------------------------------------------------------------------
B|------------------------------------------------------------------------------------------12----------
G|--11--11p10p9--9--9\8--8---------9---------------------------7--7--7h9p7--7--------10/11------11------
D|--------------------------10h11-----11--10--9-----9--7--7h9------------------9/11-----------------12--
A|------------------------------------------------------------------------------------------------------
E|------------------------------------------------------------------------------------------------------

Stave 8:

E|----------------------------------11-----11--9------9h11p9------9--7-------7-------7-------7-------7--
B|--12----------12--12--10------10----------------12----------12--------8h9-----8h9-----8h9-----8h9-----
G|------11--11--------------11--------------------------------------------------------------------------
D|------------------------------------------------------------------------------------------------------
A|------------------------------------------------------------------------------------------------------
E|------------------------------------------------------------------------------------------------------

Stave 9:

E|--7--------7--11--10--10------------------------------------------------------------------------------
B|--------------------------11/12--12--10h12p10------12--11--10------10---------------------------------
G|-----9--9--------------------------------------11--------------11------11p10--9--11--9------9---------
D|----------------------------------------------------------------------------------------11-----10h11--
A|------------------------------------------------------------------------------------------------------
E|------------------------------------------------------------------------------------------------------

Stave 10:

E|-----------------------------------------------------------------------------------------------------
B|---------------------------------------------------------------------------------------------10------
G|--9--------------------------------------------9------9--9\8------8---------9--11--9--10/11------11--
D|-----11--10--9---------9---------9--11--10h11-----11----------10-----10/11---------------------------
A|----------------10h11-----10h11----------------------------------------------------------------------
E|-----------------------------------------------------------------------------------------------------

Stave 11:

E|--------------------------------------------------------------------------------
B|--10--11--12-----12------12--12-------------12--12----------12--12--12----------
G|---------------------11----------11-----------------11------------------11------
D|-------------------------------------12-----------------12------------------12--
A|--------------------------------------------------------------------------------
E|--------------------------------------------------------------------------------

Stave 12:

E|---------16----------16------16------19------17--17------16--16----------------------------------
B|-------------16----------16------16------16----------16----------16------17--17----------16--16--
G|--12/16----------16--------------------------------------------------16----------16--16----------
D|-------------------------------------------------------------------------------------------------
A|-------------------------------------------------------------------------------------------------
E|-------------------------------------------------------------------------------------------------

Stave 13:

E|---------------------------------------------14--17--15--14------15--14----------14--------------
B|------16--17----------14h15v-----14--15--17------------------17----------17--15------17--15--14--
G|--16----------18--18-----------------------------------------------------------------------------
D|-------------------------------------------------------------------------------------------------
A|-------------------------------------------------------------------------------------------------
E|-------------------------------------------------------------------------------------------------

Stave 14:

E|------------------------------------------------------------------------------------------------------
B|--17--15--14------15--15p14------14-------------------------------------------------------------------
G|--------------16-------------16------16p14------14--14\13------13--14--13---------14--------------16--
D|--------------------------------------------16-------------14--------------14/16------16--15--13------
A|------------------------------------------------------------------------------------------------------
E|------------------------------------------------------------------------------------------------------

Stave 15:

E|----------------------------------------------------------------14--15--14--14--14--14--14--14--14--14--
B|----------------------------------------------------14--15--17------------------------------------------
G|----------------------------------------14--15--16------------------------------------------------------
D|--14---------14-------------14--15--16------------------------------------------------------------------
A|------15h16------16--14---------------------------------------------------------------------------------
E|--------------------------------------------------------------------------------------------------------

http://www.guitartabcreator.com
Guitar Tab Creator is intended to store guitar tab created through the tool. It currently does not support in-line text editing. Any text you place in here will be lost. If you need to comment on your tab, please use the "Tab Notes" section located below.