Sound will begin in 5 seconds

dire wolf red rocks 78 part 2

01234567891011121314151617181920212223
E
B
G
D
A
E
B
0 1 2 3 4 5 6 7 8 9 10 11 12 13 14 15 16 17 18 19 20 21 22 23
Song Science #1: How Pros Use 6 Chords to Write Hit Songs
(/) Slide Up  (\) Slide Down  (h) Hammer On  (p) Pull Off  (b) Bend (r) Release (v) Vibrato

Stave 1:

E|------------------------------------15--15--17--15---------13---------13-------------------------
B|-------------------------------------------------------12------15b17------17r15--13--15------13--
G|--14--12--12--12--12--12-----14/16-------------------------------------------------------14------
D|-------------------------------------------------------------------------------------------------
A|-------------------------------------------------------------------------------------------------
E|-------------------------------------------------------------------------------------------------

Stave 2:

E|--15--14--13--11/12--------------------17--17--15--15----------------------------------------------
B|---------------------13--15b17r15--13------------------17--15p14p13------13------------------------
G|-----------------------------------------------------------------------------14p13p12------12------
D|---------------------------------------------------------------------15----------------14------14--
A|---------------------------------------------------------------------------------------------------
E|---------------------------------------------------------------------------------------------------

Stave 3:

E|----------------------------------------------------------------------------------------------------
B|-------------------------------------------------------------10--10--11--10-------------------------
G|--12-------------------------------------12--10----------10------------------12--10------10--11/12--
D|------14\12--10--12\11--10/9------9--12----------12--10------------------------------12-------------
A|------------------------------10--------------------------------------------------------------------
E|----------------------------------------------------------------------------------------------------

Stave 4:

E|---------------------------------------------------------------------------13--13--------------
B|------11--12--13--12----------13--13--15--15b17r15--13-----------------------------------------
G|--10------------------14--12----------------------------14-----12--13--14----------14--15--16--
D|-----------------------------------------------------------------------------------------------
A|-----------------------------------------------------------------------------------------------
E|-----------------------------------------------------------------------------------------------

Stave 5:

E|--15--15----------15--15--------------13------12-------------------------
B|--------------------------------------------------13--15b17--13--15--13--
G|----------17--16----------14--13--12------14-----------------------------
D|-------------------------------------------------------------------------
A|-------------------------------------------------------------------------
E|-------------------------------------------------------------------------

Stave 6:

E|------------------------
B|------------------------
G|-------5----------------
D|------------------------
A|--5/7-----7\5--3--------
E|------------------5--3--

http://www.guitartabcreator.com
Guitar Tab Creator is intended to store guitar tab created through the tool. It currently does not support in-line text editing. Any text you place in here will be lost. If you need to comment on your tab, please use the "Tab Notes" section located below.