Sound will begin in 5 seconds

dire wolf red rocks 78

01234567891011121314151617181920212223
E
B
G
D
A
E
B
0 1 2 3 4 5 6 7 8 9 10 11 12 13 14 15 16 17 18 19 20 21 22 23
Song Science #1: How Pros Use 6 Chords to Write Hit Songs
(/) Slide Up  (\) Slide Down  (h) Hammer On  (p) Pull Off  (b) Bend (r) Release (v) Vibrato

Stave 1:

E|--------------------------------------15----------------------------------------
B|--13--13--12-----------------------------------------------------13-------------
G|--------------14------12--14--15--16------14b16r14p12h14------------------------
D|------------------14--------------------------------------13h14------14\12--10--
A|--------------------------------------------------------------------------------
E|--------------------------------------------------------------------------------

Stave 2:

E|------------------------------------
B|------------------------------------
G|------------------------------------
D|------------------------------------
A|----------0--2/3-----3--3--2--0-----
E|--2h3--4-------------------------3--

Stave 3:

E|---------------------------10--7--8-----7--8--7-------------------7h8--8--8-----10b12r10--8------8------
B|-------8-----------------------------8-----------10--8-----8--10-------------8---------------10-----10--
G|--7/9-----9-------7-----7-------------------------------7-----------------------------------------------
D|-------------8/9-----9----------------------------------------------------------------------------------
A|--------------------------------------------------------------------------------------------------------
E|--------------------------------------------------------------------------------------------------------

Stave 4:

E|--10b12r10--8------8--8----------------13--15--13-------------------------------------------------------
B|---------------10--------10-----15b17--------------15b17--15b17--15--13------13-------------------------
G|-------------------------------------------------------------------------14------14--13--12---------12--
D|---------------------------------------------------------------------------------------------13h14------
A|--------------------------------------------------------------------------------------------------------
E|--------------------------------------------------------------------------------------------------------

Stave 5:

E|---------------------------15-------------------------------------------------------------------------
B|------------------------------------------------------14b16--16r14------13--13--12------12--10--8-----
G|--14p13p12------12--14/16---------16\14p12h14--12-------------------14--------------12-------------9--
D|------------14----------------------------------------------------------------------------------------
A|------------------------------------------------------------------------------------------------------
E|------------------------------------------------------------------------------------------------------

Stave 6:

E|---------10------12--15--15--16--17----------------------------------------15------------------------
B|--10/12------12--------------------------------------------------------------------------------------
G|-------------------------------------16\14--12--------------12------14/16------16\14--12--15\14--12--
D|------------------------------------------------14--12--14------14-----------------------------------
A|-----------------------------------------------------------------------------------------------------
E|-----------------------------------------------------------------------------------------------------

Stave 7:

E|--------------------------------------------------------------------------
B|--------------13-------------15b17r15p13--15------13--13--13--12----------
G|--14------12---------12--12-------------------14------------------14--12--
D|------14------------------------------------------------------------------
A|--------------------------------------------------------------------------
E|--------------------------------------------------------------------------

http://www.guitartabcreator.com
Guitar Tab Creator is intended to store guitar tab created through the tool. It currently does not support in-line text editing. Any text you place in here will be lost. If you need to comment on your tab, please use the "Tab Notes" section located below.