Sound will begin in 5 seconds

devotion to a dream solo 2 spac 7/3/14

01234567891011121314151617181920212223
E
B
G
D
A
E
B
0 1 2 3 4 5 6 7 8 9 10 11 12 13 14 15 16 17 18 19 20 21 22 23
Song Science #1: How Pros Use 6 Chords to Write Hit Songs
(/) Slide Up  (\) Slide Down  (h) Hammer On  (p) Pull Off  (b) Bend (r) Release (v) Vibrato

Stave 1:

E|------------------------------------------------------------------------------------------------
B|---------------------------------------------------------14------14------17--17\16--14------14--
G|------11--11--13b15------------11------11--11--13b15---------15------15-----------------15------
D|--13--------------------12h13------13-----------------------------------------------------------
A|------------------------------------------------------------------------------------------------
E|------------------------------------------------------------------------------------------------

Stave 2:

E|-------------------------------------------------------------------------------------
B|----------------------------------------------------------------------14-------------
G|--16--15--13------13--16--14/15--13--13------13--14/15-----15\13--11------15\13--11--
D|--------------16-------------------------15------------------------------------------
A|-------------------------------------------------------------------------------------
E|-------------------------------------------------------------------------------------

Stave 3:

E|---------------------------------------------------11---------------------------------------
B|------------------14-----------------------------------11--14-----12b14r12--12--12--11--11--
G|----------11--11------13b15r13--11------11--13b15-------------------------------------------
D|--11--11----------------------------13------------------------------------------------------
A|--------------------------------------------------------------------------------------------
E|--------------------------------------------------------------------------------------------

Stave 4:

E|----------------------------------------------------------------------------------------
B|------12--12--12--11-----14--------------------------------------12--12/14--12--12--11--
G|--11-------------------------15r13------11------11h13b15-----11-------------------------
D|------------------------------------13------13------------------------------------------
A|----------------------------------------------------------------------------------------
E|----------------------------------------------------------------------------------------

Stave 5:

E|------------------------------------------------------------------------------------------
B|--------------------------------------------11--12----------------------------11--12--14--
G|------11--13--15\13--11------11--13--13/15----------15\13------11--13--13/15--------------
D|--13---------------------13--------------------------------13-----------------------------
A|------------------------------------------------------------------------------------------
E|------------------------------------------------------------------------------------------

Stave 6:

E|--------------------------------------------------------------------------------------------------
B|--14/16--14--14-----14--16--16\15--14-----14--14---------17--17\16--14-----17--17\16--14----------
G|-----------------------------------------------------15-----------------------------------16--15--
D|--------------------------------------------------------------------------------------------------
A|--------------------------------------------------------------------------------------------------
E|--------------------------------------------------------------------------------------------------

Stave 7:

E|---------------------------------------------------------------------14-----------------
B|----------------------14--14h16--14-----17p16p14------14--16--16b17------17--17r16--14--
G|----------15--16--16------------------------------15------------------------------------
D|--16--16--------------------------------------------------------------------------------
A|----------------------------------------------------------------------------------------
E|----------------------------------------------------------------------------------------

Stave 8:

E|---------14----------------------------------------------------------------------------
B|--16b18------17--17\16--14------------------------14-----11----------------------------
G|----------------------------16--14/15------14/15-------------13b15r13--11----------11--
D|---------------------------------------16----------------------------------13--13------
A|---------------------------------------------------------------------------------------
E|---------------------------------------------------------------------------------------

Stave 9:

E|-------------------------------
B|-------------------------7--7--
G|-------------------------------
D|--11--11\9--7--9--11--7--------
A|-------------------------------
E|-------------------------------

http://www.guitartabcreator.com
Guitar Tab Creator is intended to store guitar tab created through the tool. It currently does not support in-line text editing. Any text you place in here will be lost. If you need to comment on your tab, please use the "Tab Notes" section located below.