Sound will begin in 5 seconds

deep elem solo 2

01234567891011121314151617181920212223
E
B
G
D
A
E
B
0 1 2 3 4 5 6 7 8 9 10 11 12 13 14 15 16 17 18 19 20 21 22 23
Song Science #1: How Pros Use 6 Chords to Write Hit Songs
(/) Slide Up  (\) Slide Down  (h) Hammer On  (p) Pull Off  (b) Bend (r) Release (v) Vibrato

Stave 1:

E|-----------------------------------------------12-----------------------------------12---------16--
B|---------15------12--12-----------------------------------------------------12--14-----------------
G|--14b16------14----------16r14--13-----------------14b16r14--13-------------------------14/16------
D|------------------------------------14--14-----------------------14-----14-------------------------
A|---------------------------------------------------------------------------------------------------
E|---------------------------------------------------------------------------------------------------

Stave 2:

E|------------------------------------------------------15------15------14------12---------12------------
B|--15------17p15------15------17b19r17--15--17-----17------17------17------15------13b15------15r13-----
G|------16---------16------16-------------------------------------------------------------------------14p
D|-------------------------------------------------------------------------------------------------------
A|-------------------------------------------------------------------------------------------------------
E|-------------------------------------------------------------------------------------------------------

Stave 3:

E|-------------------------------------------------------------------------------------------------------
B|-------------------------------------------------------------------------------------------------------
G|--12h14p12------12------14/16--15h16--15--14--12b13----------------------------------------------------
D|------------14------14-------------------------------14--14p12------12--14--14-------------------------
A|----------------------------------------------------------------14--------------14\12--10--12--10------
E|---------------------------------------------------------------------------------------------------12--

Stave 4:

E|------------------------------------------------------------------------------------------------
B|------------------------------------------------------------------------------------------------
G|--------------------------------------------------------------------------16r14--13-------------
D|-----------------------------------------------13------13--16\14--13-----------------14---------
A|--10/11--------------11------11--12/14--12/14------14-----------------14-----------------14\12--
E|---------10--12--12------12---------------------------------------------------------------------

Stave 5:

E|-----------------
B|-----------------
G|-----------------
D|-----------------
A|--10/11--11------
E|-------------12--

http://www.guitartabcreator.com
Guitar Tab Creator is intended to store guitar tab created through the tool. It currently does not support in-line text editing. Any text you place in here will be lost. If you need to comment on your tab, please use the "Tab Notes" section located below.