Sound will begin in 5 seconds

deep elem solo 2

01234567891011121314151617181920212223
E
B
G
D
A
E
B
0 1 2 3 4 5 6 7 8 9 10 11 12 13 14 15 16 17 18 19 20 21 22 23
Song Science #1: How Pros Use 6 Chords to Write Hit Songs
(/) Slide Up  (\) Slide Down  (h) Hammer On  (p) Pull Off  (b) Bend (r) Release (v) Vibrato

Stave 1:

E|------------------------------------------------------12----------------------------
B|--------------------15------12--12--------------------------------------------------
G|-------------14b16------14----------16r14--12-------------12--14/16--14--12b13------
D|---------12------------------------------------14p12----------------------------14--
A|--12/14-----------------------------------------------------------------------------
E|------------------------------------------------------------------------------------

Stave 2:

E|-------------12---------16----------------------------------------------------------15------
B|---------12---------------------15------17p15------15------17b19r17--15--17-----17------17--
G|--14b16----------14/16------16------16---------16------16-----------------------------------
D|--------------------------------------------------------------------------------------------
A|--------------------------------------------------------------------------------------------
E|--------------------------------------------------------------------------------------------

Stave 3:

E|--15------14------------12---------12------------------------------------------------------------------
B|------17------15p14h15------13b15------15r13-----------------------------------------------------------
G|----------------------------------------------14--12h14p12------12------14b16--14--16--15--14--12------
D|------------------------------------------------------------14------14-----------------------------14--
A|-------------------------------------------------------------------------------------------------------
E|-------------------------------------------------------------------------------------------------------

Stave 4:

E|--------------------------------------------------------------------
B|--------------------------------------------------------------------
G|--------------------------------------------------------------------
D|--12h14p12------12--14--12------------------------------------------
A|------------14--------------14\12--14\12--10------10/11--10/11------
E|----------------------------------------------12----------------12--

http://www.guitartabcreator.com
Guitar Tab Creator is intended to store guitar tab created through the tool. It currently does not support in-line text editing. Any text you place in here will be lost. If you need to comment on your tab, please use the "Tab Notes" section located below.